Balzac - Violent Paradise Chords & Tabs

 

Violent Paradise Chords & Tabs

Balzac Chords & Tabs

Version: 1 Type: Tab 0 ratings
1 star 2 stars 3 stars 4 stars 5 stars
comments

Violent Paradise Tab

   
Violent Paradise - Deep Version
tabbed by:Mike Cortez
alright this one has the solo in it.... good enough right?

SOLO:


e-----------------------------------------7---7---7---7---7---7--------|
B-------------------------------------------8---8---8---8---8---8------|
G--4---4---4---4---4---4---4---4---------------------------------------|
D----5---5---5---5---5---5---5---5-------------------------------------|


e------9----7----12------------------|
B-----10---9----12-------------------|


NOTE: E-chord is played on the 7th fret.


G B E D C B A (X3)
C D B (X2)


G Em C D (X4)


G B E D C B A (X3)
C D B (X2)


G Em C D (X4)
G Em C D (X2) (with solo)

[ Tab from: http://www.guitartabs.cc/tabs/b/balzac/violent_paradise_tab.html ]
C D B (X2)
G Em C D (X2)
G
intro:plus..verse
e:------------------------------------|
b:------------------------------------|
g:-----------9999-7777-5555-----------|
D:-5555-9999-9999-5555-5555-9999-7777-|
s:-5555-9999-7777-5555-3333-9999-7777-|
e:-3333-7777----------------7777-5555-|(x3)
pre-chorus
e:-----------------|
b:-----------------|
g:-5555-7777-------|
d:-5555-7777-9999--|
a:-3333-5555-9999--|
e:-----------7777--|(x2)
chorus:
e:------------------------|
b:------------------------|
g:-----------5555-7777----|
d:-5555-2222-5555-7777----|
a:-5555-2222-3333-5555----|
e:-3333-0000--------------|(x4)
solo:
e:-------------------7-7-7-7-7-7-7-7-7-----|
b:--------------------8-8-8-8-8-8-8-8-8----|
g:-4-4-4-4-4-4-4-4-------------------------|
d:--5-5-5-5-5-5-5-5------------------------|
a:-----------------------------------------|
e:-----------------------------------------|
verse:
e:-----------------------------------|
b:-----------------------------------|
g:----------9999-7777-5555-----------|
D:5555-9999-9999-7777-5555-9999-7777-|
A:5555-9999-7777-5555-3333-9999-7777-|
e:3333-7777----------------7777-5555-|(x3)
pre-chorus:
e:-----------------|
b:-----------------|
g:-5555-7777-------|
d:-5555-7777-------|
A:-3333-5555-99999-|
e:-----------77777-|(x2)
chorus:outro
e:---------------------|
b:---------------------|
g:-----------5555-7777-|
D:-5555-2222-5555-7777-|
A:-5555-2222-3333-5555-|
e:-3333-0000-----------|(x4)
Comments