Balzac - Get Loose Chords & Tabs

 

Get Loose Chords & Tabs

Balzac Chords & Tabs

Version: 1 Type: Tab 0 ratings
1 star 2 stars 3 stars 4 stars 5 stars
comments

Get Loose Tab

   
/= slide up
~= vibrato
v= vibrato
b= bend
this song is from guitar wolf as well....
tabbed by Mike Cortez
Guitar 1 and 2
  Intro, Verse 1 and Chorus:
e|---------------------------------|
B|---------------------------------|
G|-------5-7-7-7-7-3-3-3-3-5-5-5-5-|
D|-5-5-5-5-7-7-7-7-3-3-3-3-5-5-5-5-|
A|-5-5-5-3-5-5-5-5-1-1-1-1-3-3-3-3-|
E|-3-3-3---------------------------|2x

 Guitar 1 for Verse 2 (Whole time)
e|---------------------------------|
B|---------------------------------|
G|-------5-7-7-7-7-3-3-3-3-5-5-5-5-|
D|-5-5-5-5-7-7-7-7-3-3-3-3-5-5-5-5-|
A|-5-5-5-3-5-5-5-5-1-1-1-1-3-3-3-3-|
E|-3-3-3---------------------------|

 Guitar 2 for first part
e|----------------------------|
B|----------------------------|
G|----------5b---5b---5b---5b-|
D|-4-5-6--7----7----7----7----|
A|----------------------------|
E|----------------------------|
[ Tab from: http://www.guitartabs.cc/tabs/b/balzac/get_loose_tab.html ]
 Guitar 2 for second part
e|-14-12----------------------------|
B|-------14-12----------------------|
G|-------------14-12-11-9-11-9-11bv-|
D|----------------------------------|
A|----------------------------------|
E|----------------------------------|

 Guitar 2 for third part
e|--------------------------------------------|
B|--------------------------------------------|
G|-9b-9b-9b-9b-9b-9b-9b-9b-slide down and out-|
D|--------------------------------------------|
A|--------------------------------------------|
E|--------------------------------------------|

 solo:
e|----------------------------|
B|----------------------------|
G|----------------------------|
D|-8--6-7b--5-4-0~~~~~~~~~~~~-|
A|----------------------------|
E|----------------------------|

e|----------------------|
B|----------------------|
G|------7-9~~~-7-6-7~~~-|
D|-9~~~-----------------|
A|----------------------|
E|----------------------|

e|----7-9~~~-7-6-7/-7/-7/-7/-7/-7/-7/-7/-9~~~-|
B|-9b-----------------------------------------|
G|--------------------------------------------|
D|--------------------------------------------|
A|--------------------------------------------|
E|--------------------------------------------|

 Bridge
e|------------|
B|------------|
G|------------|
D|-5----------|
A|-5----------|
E|-3-Let Ring-

Order:
Intro
Verse 1
Chorus
Verse 2
Chorus
Solo
Bridge
Chorus
Comments