Baghead - Ice Flow Chords & Tabs

 

Ice Flow Chords & Tabs

Baghead Chords & Tabs

Version: 1 Type: Tab 0 ratings
1 star 2 stars 3 stars 4 stars 5 stars
comments

Ice Flow Tab

Song: Ice Flow
Composer: Myself, the great and marvelous baghead

Key:
	/   = slide to next note
	^  = hammer next note
	( )= palm mute enclosed note/notes
	*  = squeal note that is just before this notation.
	P  = pull off to next note

E-----------------------------------------------------------
B-----------------------------------------------------------
G-----------------------------------------------------------
D-------4-4/5-7-5/4^5-------------4-4/5-7-5/4^5------
A-----2-------------------------2------------------------
E------------------------------------------------------------


E-----------------------------------------------------------
B-----------------------------------------------------------
G-----------------------------------------------------------
D-------4-4/5-7-5/4^5-----------4-4/5-7-5/4^5p0-----
A-----2-----------------------2------------------------- (let last one ring out)
E------------------------------------------------------------


E-----------------------------------------------------------
B-----------------------------------------------------------
G-----------------------------------------------------------
D--2-(0)-1-(0)--------------------------------------------  play this 4 times
A--2-(0)-1-(0)--(5555-4444)---------------------------
E--2-(0)-1-(0)--(3333-2222)---------------------------

E-----------------------------------------------------------
B-----------------------------------------------------------
G-----------------------------------------------------------
D-----------------------------------------------------------
A--(4-4)-4-(4)-(2-2)-2-(2)--(4-4)-4-(4)-(2-2)-2-(2)-
E--(2-2)-2-(2)-(0-0)-0-(0)--(2-2)-2-(2)-(0-0)-0-(0)-

E-----------------------------------------------------------
B-----------------------------------------------------------
G-----------------------------------------------------------
D-----------------------------------------------------------
A--(4-4)-4-(4)-(2-2)-2-(2)--(4-4)-4-(4)-(2-2)-2-(2)-
E--(2-2)-2-(2)-(0-0)-0-(0)--(2-2)-2-(2)-(0-0)-0-(0)-3*
[ Tab from: http://www.guitartabs.cc/tabs/b/baghead/ice_flow_tab.html ]
E-----------------------------------------------------------
B-----------------------------------------------------------
G-----------------------------------------------------------
D--2-(0)-1-(0)--------------------------------------------  play this 4 times
A--2-(0)-1-(0)--(5555-4444)---------------------------
E--2-(0)-1-(0)--(3333-2222)---------------------------

E-----------------------------------------------------------
B-----------------------------------------------------------
G-----------------------------------------------------------
D-----------------------------------------------------------
A--(4-4)-4-(4)-(2-2)-2-(2)--(4-4)-4-(4)-(2-2)-2-(2)-
E--(2-2)-2-(2)-(0-0)-0-(0)--(2-2)-2-(2)-(0-0)-0-(0)-

E-----------------------------------------------------------
B-----------------------------------------------------------
G-----------------------------------------------------------
D-----------------------------------------------------------
A--(4-4)-4-(4)-(2-2)-2-(2)--(4-4)-4-(4)-(2-2)-2-(2)-
E--(2-2)-2-(2)-(0-0)-0-(0)--(2-2)-2-(2)-(0-0)-0-(0)-3* let the squeal die out

E-----------------------------------------------------------
B-----------------------------------------------------------
G-----------------------------------------------------------
D-------4-4/5-7-5/4^5-------------4-4/5-7-5/4^5------
A-----2-------------------------2------------------------
E------------------------------------------------------------

E-----------------------------------------------------------
B-----------------------------------------------------------
G-----------------------------------------------------------
D-------4-4/5-7-5/4^5-------------4-4/5-7-5/4^5------
A-----2-------------------------2------------------------
E------------------------------------------------------------


E-----------------------------------------------------------
B-----------------------------------------------------------
G-----------------------------------------------------------
D-------4-4/5-7-5/4^5-----------4-4/5-7-5/4^5p0-----
A-----2-----------------------2------------------------- (let last one ring out)
E------------------------------------------------------------







Comments