Badly Drawn Boy - Silent Sigh Chords & Tabs

 

Silent Sigh Chords & Tabs

Badly Drawn Boy Chords & Tabs

Version: 1 Type: Bass Tab 0 ratings
1 star 2 stars 3 stars 4 stars 5 stars
comments

Silent Sigh Bass Tab

   
Badly Drawn Boy - Silent Sigh bass tab by JG - jg2@ntlworld.com


The rhythm is a little quirky in places..i've tried to cater for it with the gaps between
notes...but you'll have to work it out properly by ear.


~ hold note
/ slide up
\ slide down
h hammer-on


Main - beginning

--------------------------------------------|
-----------------------------/5-------------|
------------------3~----3~-------7--3\------|
--1~---0-1~--3-5-----3------------------1~--|


Main later on - played staccato
[ Tab from: http://www.guitartabs.cc/tabs/b/badly_drawn_boy/silent_sigh_btab.html ]
-------------------------------------------------------------------|
-------------------------------------------------------------------|
----------------------------------3-3-3-3-3-3-3-3-3-3-3-3-3-3-3-3--|
--1-1-1-1-1-1-1-0-1-1-1-1-1-1-1-3----------------------------------|


"Never stop living here..."

----------------------------|
----------------------------|
----------------------------|
--3-3-3-3-5-7--/12-12/15\1--|

Fill 1

-------------/14-12---------------------------|
--------3-----------14-12---------------------|
----1h3---3---------------15\3-3-3-3-3-3-3-3--|
--1-------------------------------------------|


The really good fill

---------------------5-----7-5/12-9----------|
----------3-----5-3-----5-----------10-------|
-----1h3-----3-------------------------10\3--|
--1------------------------------------------|


Thats about it. There are other fills that I couldn't quite work out.
Comments