Badfinger - Without You Chords & Tabs

 

Without You Chords & Tabs

Badfinger Chords & Tabs

Version: 1 Type: Tab 0 ratings
1 star 2 stars 3 stars 4 stars 5 stars
comments

Without You Tab

   
------------------------------------------------------------------

  BADFINGER - WITHOUT YOU (Ham/Evans) From NO DICE album. Released
              by APPLE RECORDS on 9th November 1970.

------------------------------------------------------------------

  Tabbed by:PJVillanueva






       This song was never released as a Badfinger single. This may 
   explain the fact that it never topped the charts in its original
   version, but it was a World Hit soon by Harry Nilsson in December 
   1972 and also by Maria Carey in February 1994.
        

            



Well I can't forget this evening
and your face when you were leaving
But I guess that's just the way the story goes

You always smile
but in your eyes your sorrow shows
Yes it shows.

Well I can't forget tomorrow
when I think of all my sorrow
I had you there, then I let you go

And now it's only fair
that I should let you know
What you should know

I can't live, if living is without you
I can't live, I can't give anymore
I can't live, if living is without you
I can't live, I can't give anymore

Well I can't forget this evening
and your face when you were leaving
But I guess that's just the way the story goes

You always smile
but in your eyes your sorrow shows
Yes it shows.

{guitar solo}

I can't live, if living is without you
I can't live, I can't give anymore
I can't live, if living is without you
I can't live, I can't give anymore

I can't live, if living is without you
I can't live, I can't give anymore
I can't live, if living is without you
I can't live, I can't give anymore

I can't live, if living is without you
I can't live, I can't give anymore
I can't live, if living is without you
I can't live, I can't give anymore





       Use a capo on the 4th fret for guitar 1

 
       

  Intro                                                           

                                       
e|------- ------- ------- -------|------- ------- ------- -------|
B|-------------------------------|-------------------------------| 
G|----------------3-------3------|----------------8--------------|
D|4-------4----------------------|1-------1---------------8------|
A|-------------------------------|----------------------------6-\|
E|-------------------------------|-------------------------------|
                                           
e|------- ------- ------- -------|------- ------- ------- -------| Guitar 2
B|-------------------------------|-------------------------------|
G|--------------6-----6-\--------|-13B15R13B15-------------------|
D|------------4------------------|-------------------------------|
A|-------------------------------|-------------------------------|
E|-------------------------------|-------------------------------|






e|------- ------- ------- -------|------- ------- ------- -------|
B|-------------------------------|-------------------------------|
G|-------------------------------|-------------------------------|
D|-------------------------------|-------------------------------|
A|2-------2----------------------|4---4--------------------------|
E|----------------4-------4------|-------------------------------|
                                                          Well I
                           B R                                 can't 
e|------- ------- ------- -------|14B16-- ------- ------- -------|
B|-14B16-----------------141614--|-------------------------------|
G|-----------------------------15|-------------------------------|
D|-------------------------------|-------------------------------|
A|-------------------------------|-------------------------------|
E|-------------------------------|-------------------------------|



   Verse

  D                               F#m7
e|2---2-2 2---2-2 2---2-2 2---2-2|2---2-2 2---2-2 2---2-- 2---2-2| Guitar 1
B|3---3-3-3---3-3-3---3-3-3---3-3|5---5-5-5---5-5-5---5---5---5-5|
G|2---2-2-2---2-2-2---2-2-2---2-2|2---2-2-2---2-2-2---2---2---2-2|
D|0---0-0-0---0-0-0---0-0-0---0-0|4---4-4-4---4-4-4---4---4---4-4|
A|-------------------------------|4---4-4-4---4-4-4---4---4---4-4|
E|-------------------------------|2---2-2-2---2-2-2---2---2---2-2|
      forget  this evening 
                          and your face
                                    when you were leaving    but I


  Em7                             F#
e|0---0-- 0---0-0 0---0-0 0---0-0|2---2-2 2---2-2 2---2-2 2---2--|
B|3---3---3---3-3-3---3-3-3---3-3|2---2-2-2---2-2-2---2-2-2---2--|
G|0---0---0---0-0-0---0-0-0---0-0|3---3-3-3---3-3-3---3-3-3---3--|
D|2---2---2---2-2-2---2-2-2---2-2|4---4-4-4---4-4-4---4-4-4---4--|
A|2---2---2---2-2-2---2-2-2---2-2|4---4-4-4---4-4-4---4-4-4---4--|
E|0---0---0---0-0-0---0-0-0---0-0|2---2-2-2---2-2-2---2-2-2---2--|
  guess 
      that's 
         just the way the story goes                  You always


  Bm                              G       F#m     Em
e|2---2-2 2---2-2 2---2-2 2---2-2|3---3-3 2-2-2-- 0---0-0 0---0--|
B|3---3-3-3---3-3-3---3-3-3---3-3|3---3-3-2-2-2---0---0-0-0---0--|
G|4---4-4-4---4-4-4---4-4-4---4-4|0---0-0-2-2-2---0---0-0-0---0--|
D|4---4-4-4---4-4-4---4-4-4---4-4|0---0-0-4-4-4---2---2-2-2---2--|
A|2---2-2-2---2-2-2---2-2-2---2-2|2---2-2-4-4-4---2---2-2-2---2--|
E|-------------------------------|3---3-3-2-2-2---0---0-0-0---0--|
  smile 
      but in your                
               eyes  your sorrow 
                              shows                       Yes it

  D                               A
e|2---2-2 2---2-2 2---2-2 2-2----|0---0-0 0---0-0 0---0-0 0-0-0--|
B|3---3-3-3---3-3-3---3-3-3-3----|2---2-2-2---2-2-2---2-2-2-2-2--|
G|2---2-2-2---2-2-2---2-2-2-2----|2---2-2-2---2-2-2---2-2-2-2-2--|
D|0---0-0-0---0-0-0---0-0-0-0----|2---2-2-2---2-2-2---2-2-2-2-2--|
A|-------------------------------|0---0-0-0---0-0-0---0-0-0-0-0--|
E|-------------------------------|-------------------------------|
  shows                                                   Well i            
                                                               can't

                                                     

  D                               F#m7
e|2---2-2 2-----2 2---2-2 2-2-2--|2---2-2 2-2-2-- 2---2-- 2-2-2--|   
B|3---3-3-3-----3-3---3-3-3-3-3--|5---5-5-5-5-5---5---5---5-5-5--|             
G|2---2-2-2-----2-2---2-2-2-2-2--|2---2-2-2-2-2---2---2---2-2-2--|
D|0---0-0-0-----0-0---0-0-0-0-0--|4---4-4-4-4-4---4---4---4-4-4--|
A|-------------------------------|4---4-4-4-4-4---4---4---4-4-4--|
E|-------------------------------|2---2-2-2-2-2---2---2---2-2-2--|
      forget  tomorrow    when I 
                               think  of  all my 
                                               sorrow     I


  Em7                             F#
e|0---0-- 0---0-0 0---0-- 0-0-0--|2---2-2 2-2-2-2 2---2-2 2---2--|
B|3---3---3---3-3-3---3---3-3-3--|2---2-2-2-2-2-2-2---2-2-2---2--|
G|0---0---0---0-0-0---0---0-0-0--|3---3-3-3-2-3-3-3---3-3-3---3--|
D|2---2---2---2-2-2---2---2-2-2--|4---4-4-4-4-4-4-4---4-4-4---4--|
A|2---2---2---2-2-2---2---2-2-2--|4---4-4-4-4-4-4-4---4-4-4---4--|
E|0---0---0---0-0-0---0---0-0-0--|2---2-2-2-2-2-2-2---2-2-2---2--|
  had you
        there     then I  let you 
                                go                    and  now 
                                                             it's on..
e|------- ------- ------- -------|1------ 2------ 4------ 1------|
B|--------4-------4-------4------|3-------4-------6-------3------|
G|--------4-------4-------4------|3-------3-------7-------3------|
D|--------6-------6-------6------|-------------------------------|
A|-------------------------------|-------------------------------|
E|-------------------------------|-------------------------------|



                                                            
  Bm                              G       F#m     Em
e|2---2-- 2-2-2-- 2------ 2------|3---3-- 2---2-- 0---0-- 0------|
B|3---3---3-3-3---3-------3------|3---3---2---2---0---0---0------|
G|4---4---4-4-4---4-------4------|0---0---2---2---0---0---0------|
D|4---4---4-4-4---4-------4------|0---0---4---4---2---2---2------|
A|2---2---2-2-2---2-------2------|2---2---4---4---2---2---2------|
E|-------------------------------|3---3---2---2---0---0---0------|
  ...ly fair  that 
                 I should let you 
                               know                   what you should
e|2------ 2------ 2------ 2------|2------ 2------ ------- -------|
B|4-------4-------4-------2------|4-------4-------4-------4------|
G|3-------3-------3-------3------|4-------3-------4-------4------|
D|-------------------------------|----------------6-------6------|
A|-------------------------------|-------------------------------|
E|-------------------------------|-------------------------------|
  
e|------- 6------ ------- 6------|------- 6------ ------- 7------|
B|--------7---------------7------|--------7---------------7------|
G|--------8---------------8------|--------8---------------8------|
D|--------8---------------8------|--------8---------------9------|
A|--------6---------------6------|--------6---------------9------|
E|-------------------------------|------------------------7------|




  D                               A
e|2---2-2 2-2---2 2---2-2 2-2-2--|0---0-0 0---0-0 0------ 0---0--|
B|3---3-3-3-3---3-3---3-3-3-3-3--|2---2-2-2---2-2-2-------2---2--|
G|2---2-2-2-2---2-2---2-2-2-2-2--|2---2-2-2---2-2-2-------2---2--|
D|0---0-0-0-0---0-0---0-0-0-0-0--|2---2-2-2---2-2-2-------2---2--|
A|-------------------------------|0---0-0-0---0-0-0-------0---0--|
E|-------------------------------|-------------------------------|
  know                                                       I can't
e|------- ------- ------- -------|1------ 1------ 1------ 1------|
B|2-------2-------2-------2------|2-------2-------2-------2------|
G|3-------3-------3-------3------|----1-------1-------1-------1--|
D|----4-------4-------4-------4--|-------------------------------|
A|-------------------------------|-------------------------------|
E|-------------------------------|-------------------------------|
   
e|------- 6------ ------6 6-6----|4------ 4------ ------- 4------|
B|--------7-------------7-7-7----|6-------6---------------6------|
G|--------6-------------6-6-6----|6-------6---------------6------|
D|--------8-------------8-8-8----|6-------6---------------6------|
A|--------9-------------9-9-9----|4-------4---------------4------|
E|-------------------------------|-------------------------------|              
                                                                                

   Chorus

  D               F#m             Bm              D7
e|2---2-2 2---2-- 2---2-2 2-2-2--|2---2-2 2---2-- 2---2-2 2-2----|
B|3---3-3-3---3---2---2-2-2-2-2--|3---3-3-3---3---1---1-1-1-1----|
G|2---2-2-2---2---2---2-2-2-2-2--|4---4-4-4---4---2---2-2-2-2----|
D|0---0-0-0---0---4---4-4-4-4-4--|4---4-4-4---4---0---0-0-0-0----|
A|----------------4---4-4-4-4-4--|2---2-2-2---2------------------|
E|----------------2---2-2-2-2-2--|-------------------------------|
  live                        if  living 
                                      is without you         I can't
e|2------ 2------ 1------ 1------|------- ------- ------- -------|
B|2-------2-------2-------2------|4-------4-------2-------2------|
G|3-------3-------3-------3------|3-------3-------3-------3------|
D|-------------------------------|4-------4-------4-------4------|
A|-------------------------------|-------------------------------|
E|-------------------------------|-------------------------------|
      
e|------- ------- ------- -------|------- ------- ------- -------|
B|-------------------------------|-------------------------------|
G|--------3---------------3------|--------3---------------3------|
D|----4-------4-------3-------3--|----4-------4-------4-------4--|
A|4---------------4--------------|6---------------4--------------|
E|-------------------------------|-------------------------------|




  G               Em7             A
e|3---3-3 3-3-3-- 0---0-0 0-0-0--|0---0-- 0---0-- 0-000-0 0---0--|
B|3---3-3-3-3-3---3---3-3-3-3-3--|2---2---2---2---2-222-2-2---2--|
G|0---0-0-0-0-0---0---0-0-0-0-0--|2---2---2---2---2-222-2-2---2--|
D|0---0-0-0-0-0---2---2-2-2-2-2--|2---2---2---2---2-222-2-2---2--|
A|2---2-2-2-2-2---2---2-2-2-2-2--|0---0---0---0---0-000-0-0---0--|
E|3---3-3-3-3-3---0---0-0-0-0-0--|-------------------------------|
  live                      I can't 
                                  give anymore               I can't 
e|2------ 2------ ------- -------|------- ------- ------- -------|
B|4-------4-------7-------7------|6-------6-----6---6-6---6------|
G|4-------4-------4-------4------|6-------6-----6---6-6---6------|
D|----------------6-------6------|6-------6-----6---6-6---6------|
A|-------------------------------|-------------------------------|
E|-------------------------------|-------------------------------|
   
e|------- ------- ------- -------|------- ------- ------- -------|
B|-------------------------------|-------------------------------|
G|--------4----------------------|------------------6-6---6------|
D|----4-------4-----------4------|----6---6---6-----6-6---6------|
A|6-------------------6-------6--|4-----------------4-4---4------|
E|--------------2/4--------------|-------------------------------|




  D               F#m             Bm              D7
e|2---2-2 2-2-2-2 2---2-2 2-2-2--|2---2-2 2---2-- 2---2-2 2------|
B|3---3-3-3-3-3-3-2---2-2-2-2-2--|3---3-3-3---3---1---1-1-1------|
G|2---2-2-2-2-2-2-2---2-2-2-2-2--|4---4-4-4---4---2---2-2-2------|
D|0---0-0-0-0-0-0-4---4-4-4-4-4--|4---4-4-4---4---0---0-0-0------|
A|----------------4---4-4-4-4-4--|2---2-2-2---2------------------|
E|----------------2---2-2-2-2-2--|-------------------------------|
  live                        if  living 
                                      is without you         I can't
e|2------ 2------ 1------ 1------|------- ------- ------- -------|
B|2-------2-------2-------2------|4-------4-------2-------2------|
G|3-------3-------3-------3------|3-------3-------3-------3------|
D|-------------------------------|4-------4-------4-------4------|
A|-------------------------------|-------------------------------|
E|-------------------------------|-------------------------------|

e|------- ------- ------- -------|------- ------- ------- -------|
B|-------------------------------|-------------------------------|
G|--------3---------------3------|--------3---------------3------|
D|----4-------4-------3-------3--|----4-------4-------4-------4--|
A|4---------------4--------------|6---------------4--------------|
E|-------------------------------|-------------------------------|




  G               Em7             A
e|3---3-- 3---3-3 0---0-0 0---0--|0------ 0-----0 0---0-0 0---0--|
B|3---3---3---3-3-3---3-3-3---3--|2-------2-----2-2---2-2-2---2--|
G|0---0---0---0-0-0---0-0-0---0--|2-------2-----2-2---2-2-2---2--|
D|0---0---0---0-0-2---2-2-2---2--|2-------2-----2-2---2-2-2---2--|
A|2---2---2---2-2-2---2-2-2---2--|0-------0-----0-0---0-0-0---0--|
E|3---3---3---3-3-0---0-0-0---0--|-------------------------------|
  live                      I can't 
                                  give anymore            Well      
                                                              I can't
e|2------ 2------ ------- -------|------- ------- ------- -------|
B|4-------4-------7-------7------|6-------6---6-------6---6------|
G|4-------4-------4-------4------|6-------6---6-------6---6------|
D|----------------6-------6------|6-------6---6-------6---6------|
A|-------------------------------|-------------------------------|
E|-------------------------------|-------------------------------|

e|------- ------- ------- -------|------- ------- ------- -------|
B|-------------------------------|-------------------------------|
G|--------4----------------------|--------6---6------------------|
D|----4-------4-----------4------|----6-------6------------------|
A|6-------------------6-------6--|4-----------4------------------|
E|--------------2/4--------------|-------------------------------|



   Verse                                                                

  D                               F#m7
e|2---2-2 2---2-- 2-2-2-2 2---2--|2---2-2 2---2-2 2---2-2 2---2--|         
B|3---3-3-3---3---3-3-3-3-3---3--|5---5-5-5---5-5-5---5-5-5---5--|                    
G|2---2-2-2---2---2-2-2-2-2---2--|2---2-2-2---2-2-2---2-2-2---2--|
D|0---0-0-0---0---0-0-0-0-0---0--|4---4-4-4---4-4-4---4-4-4---4--|
A|-------------------------------|4---4-4-4---4-4-4---4-4-4---4--|
E|-------------------------------|2---2-2-2---2-2-2---2-2-2---2--|
      forget this evening 
                          and your face
                                    when you were leaving    but I   
e|------- 6------ ------- 6------|------- 6------ ------- 6------|
B|--------7---------------7------|--------9---------------9------|
G|--------6---------------6------|--------6---------------6------|
D|--------8---------------8------|--------8---------------8------|
A|--------9---------------9------|--------8---------------8------|
E|-------------------------------|--------6---------------6------|
  



  Em7                             F#
e|0---0-- 0------ 0-----0 0---0--|2---2-2 2---2-2 2---2-2 2-2-2--|
B|3---3---3-------3-----3-3---3--|2---2-2-2---2-2-2---2-2-2-2-2--|
G|0---0---0-------0-----0-0---0--|3---3-3-3---3-3-3---3-3-3-3-3--|
D|2---2---2-------2-----2-2---2--|4---4-4-4---4-4-4---4-4-4-4-4--|
A|2---2---2-------2-----2-2---2--|4---4-4-4---4-4-4---4-4-4-4-4--|
E|0---0---0-------0-----0-0---0--|2---2-2-2---2-2-2---2-2-2-2-2--|
  guess 
      that's 
         just the way the story goes                  You always
e|------- 4------ ------- 4------|------- 7------ ------- 7------|
B|--------4---------------4------|--------7---------------7------|
G|--------4---------------4------|--------8---------------8------|
D|--------6---------------6------|--------9---------------9------|
A|--------6---------------6------|--------9---------------9------|
E|--------4---------------4------|--------7---------------7------|
  



  Bm                              G       F#m     Em
e|2---2-- 2-2-2-2 2---2-2 2---2--|3---3-- 2-2-2-2 0---0-0 0---0--|
B|3---3---3-3-3-3-3---3-3-3---3--|3---3---2-2-2-2-0---0-0-0---0--|
G|4---4---4-4-4-4-4---4-4-4---4--|0---0---2-2-2-2-0---0-0-0---0--|
D|4---4---4-4-4-4-4---4-4-4---4--|0---0---4-4-4-4-2---2-2-2---2--|
A|2---2---2-2-2-2-2---2-2-2---2--|2---2---4-4-4-4-2---2-2-2---2--|
E|-------------------------------|3---3---2-2-2-2-0---0-0-0---0--|
  smile 
      but in your                
               eyes  your sorrow 
                              shows                       Yes it
e|------- 6------ ------- 6------|------- 7------ ------- -------|
B|--------7---------------7-7----|--------7---------------7------|
G|--------8---------------8-6----|--------8-------------8-8------|
D|--------8---------------8-8----|--------9-------------9-9------|
A|--------6---------------6-6----|--------9-------------9-9------|
E|-------------------------------|--------7-------------7-7------|
  



  D                               A
e|2---2-2 2---2-2 2---2-2 2-2-2--|0---0-0 0---0-0 0---0-0 0-0-0--|
B|3---3-3-3---3-3-3---3-3-3-3-3--|2---2-2-2---2-2-2---2-2-2-2-2--|
G|2---2-2-2---2-2-2---2-2-2-2-2--|2---2-2-2---2-2-2---2-2-2-2-2--|
D|0---0-0-0---0-0-0---0-0-0-0-0--|2---2-2-2---2-2-2---2-2-2-2-2--|
A|-------------------------------|0---0-0-0---0-0-0---0-0-0-0-0--|
E|-------------------------------|-------------------------------|
  shows                                                          
e|------- 6------ ------- 6------|4-4---- ------- ------- -------|
B|--------7---------------7------|6-6----------------------------|
G|--------6---------------6------|6-6----------------------------|
D|--------8---------------8------|6-6----------------------------|
A|--------9---------------9------|4-4----------------------------|
E|-------------------------------|-------------------------------|
  
         
                                                              
  Solo
  D                               F#m7
e|2---2-- 2-----2 2---2-- 2-2-2--|2-2-2-- 2---2-2 2---2-2 2-2-2--|
B|3---3---3-----3-3---3---3-3-3--|5-5-5---2---2-2-2---2-2-5-5-5--|
G|2---2---2-----2-2---2---2-2-2--|2-2-2---2---2-2-2---2-2-2-2-2--|
D|0---0---0-----0-0---0---0-0-0--|4-4-4---4---4-4-4---4-4-4-4-4--|
A|-------------------------------|4-4-4---4---4-4-4---4-4-4-4-4--|
E|-------------------------------|2-2-2---2---2-2-2---2-2-2-2-2--|

e|------- ------- ------- -------|------- ------- ------- -------|
B|2-------2-------2-------2------|2-------2-------2-------2------|
G|3-------3-------3-------3------|3-------3-------3-------3------|
D|4-------4-------4-------4------|3-------3-------3-------3------|
A|-------------------------------|-------------------------------|
E|-------------------------------|-------------------------------|
                                           
e|------- ------- ------- -------|------- ------- ------- -------|
B|-------------------------------|-------------------------------|
G|--------------6-----6-\--------|-13B15-------------------------|
D|4-----------4------------------|-------------------------------|
A|-------------------------------|-------------------------------|
E|-------------------------------|-------------------------------|


  

  Em7             Em      Em7     F#              F#7
e|0---0-0 0---0-0 0---0-0 0-0-0--|2---2-2 2-2-2-- 2-2-2-2 2---2--|
B|3---3-3-3---3-3-0---0-0-3-3-3--|2---2-2-2-2-2---5-5-5-5-5---5--|
G|0---0-0-0---0-0-0---0-0-0-0-0--|3---3-3-3-3-3---3-3-3-3-3---3--|
D|2---2-2-2---2-2-2---2-2-2-2-2--|4---4-4-4-4-4---4-4-4-4-4---4--|
A|2---2-2-2---2-2-2---2-2-2-2-2--|4---4-4-4-4-4---4-4-4-4-4---4--|
E|0---0-0-0---0-0-0---0-0-0-0-0--|2---2-2-2-2-2---2-2-2-2-2---2--|

e|------- ------- ------- -------|1------ 1---2-- 4------ 4------|
B|4-------4-------4-------4------|3-------3---3---3-------3------|
G|4-------4---6---4-------4------|3---3---3---3---3---3---3---3--|
D|6-------6-------6---8---6------|-------------------------------|
A|-------------------------------|-------------------------------|
E|-------------------------------|-------------------------------|
                                                           
e|------- ------- ------- ------14B16---- ------- -17B18- ---R17-|
B|-14B16-----------------141614--|-------------------------------|
G|-----------------------------15|-------------------------------|
D|-------------------------------|-------------------------------|
A|-------------------------------|-------------------------------|
E|-------------------------------|-------------------------------| 


  

  Bm              Bm7             G       F#m     Em
e|2---2-2 2-2-2-- 2---2-2 2-2-2--|3---3-3 2-2-2-2 0---0-0 0-0-0--|
B|3---3-3-3-3-3---3---3-3-3-3-3--|3---3-3-2-2-2-2-0---0-0-0-0-0--|
G|4---4-4-4-4-4---2---2-2-2-2-2--|4---4-4-2-2-2-2-0---0-0-0-0-0--|
D|4---4-4-4-4-4---4---4-4-4-4-4--|5---5-5-4-4-4-4-2---2-2-2-2-2--|
A|2---2-2-2-2-2---2---2-2-2-2-2--|5---5-5-4-4-4-4-2---2-2-2-2-2--|
E|-------------------------------|3---3-3-2-2-2-2-0---0-0-0-0-0--|

e|2------ 2------ 2------ 2------|2------ 2------ ------- -------|
B|4-------4-------2-------2------|4-------4-------4-------4------|
G|3-------3-------3-------3------|4-------3-------4-------4------|
D|-------------------------------|----------------6-------6------|
A|-------------------------------|-------------------------------|
E|-------------------------------|-------------------------------|
  
e|14----- ------- ------- 1416R14|16B18-- ------- -------18R1614-|
B|----------16P14-16-------------|------------------------------14
G|-------------------------------|-------------------------------|
D|-------------------------------|-------------------------------|
A|-------------------------------|-------------------------------|
E|-------------------------------|-------------------------------|



[ Tab from: http://www.guitartabs.cc/tabs/b/badfinger/without_you_tab.html ]
  D                               A
e|2-2-2-- 2-2---- 2-2-2-2 --2-2--|0---0-0 0---0-0 0------ 0------|
B|3-3-3-3-3-3---3-3-3-3-3---3-3--|2---2-2-2---2-2-2-------2------|
G|2-2-2-2-2-2---2-2-2-2-2---2-2--|2---2-2-2---2-2-2-------2------|
D|0-0-0-0-0-0---0-0-0-0-0---0-0--|2---2-2-2---2-2-2-------2------|
A|-------------------------------|0---0-0-0---0-0-0-------0------|
E|-------------------------------|-------------------------------|
                                                             I can't 
e|2------ 2------ 2------ 2------|1------ 1------ 1------ 1------|
B|2-------2-------2-------2------|2-------2-------2-------2------|
G|3-------3-------3-------3------|1-------1-------1-------1------|
D|-------------------------------|-------------------------------|
A|-------------------------------|-------------------------------|
E|-------------------------------|-------------------------------|

e|------- ------- ------- -------|19B21-- ------- ------- -------|
B|-------------------------------|-------------------------------|
G|----------------------------18-|-------------------------------|
D|-------------------------------|-------------------------------|
A|-------------------------------|-------------------------------|
E|-------------------------------|-------------------------------|
                                                             
     

   Chorus
  D               F#m             Bm              D7
e|2---2-- 2---2-2 2---2-- 2---2--|2---2-- 2---2-- 2---2-2 2---2--|
B|3---3---3---3-3-2---2---2---2--|3---3---3---3---1---1-1-1---1--|
G|2---2---2---2-2-2---2---2---2--|4---4---4---4---2---2-2-2---2--|
D|0---0-0-0---0-0-4---4---4---4--|4---4---4---4---0---0-0-0---0--|
A|----------------4---4---4---4--|2---2---2---2------------------|
E|----------------2---2---2---2--|-------------------------------|
  live                        if  living 
                                      is without you         I can't
e|------- ------- ------- -------|------- ------- ------- -------|
B|-------------------------------|2---3--------------------------|
G|------------------------2---4--|--------4-------------------2--|
D|4-------------------5----------|-------------------------------|
A|-------------------------------|-------------------------------|
E|-------------------------------|-------------------------------|




  G               Em7             A
e|3---3-- 3---3-- 0---0-0 0---0--|0---0-0 0---0-- 0---0-0 0---0--|
B|3---3---3---3---3---3-3-3---3--|2---2-2-2---2---2---2-2-2---2--|
G|0---0---0---0---0---0-0-0---0--|2---2-2-2---2---2---2-2-2---2--|
D|0---0---0---0---2---2-2-2---2--|2---2-2-2---2---2---2-2-2---2--|
A|2---2---2---2---2---2-2-2---2--|0---0-0-0---0---0---0-0-0---0--|
E|3---3---3---3---0---0-0-0---0--|-------------------------------|
  live                      I can't 
                                  give anymore               I can't
e|------- ------- ------- -------|------- ------- ------- -------|
B|3------------------------------|-------------------------------|
G|------------------------2------|-------------------------------|
D|-------------------------------|------------------------5------|
A|-------------------------------|-------------------------------|
E|-------------------------------|-------------------------------|


                                                                  

  D               F#m             Bm              D7
e|2---2-2 2---2-- 2---2-- 2---2-2|2---2-- 2---2-- 2---2-- 2------|
B|3---3-3-3---3---2---2---2---2-2|3---3---3---3---1---1---1------|
G|2---2-2-2---2---2---2---2---2-2|4---4---4---4---2---2---2------|
D|0---0-0-0---0---4---4---4---4-4|4---4---4---4---0---0---0------|
A|----------------4---4---4---4-4|2---2---2---2------------------|
E|----------------2---2---2---2-2|-------------------------------|
  live                        if  living 
                                      is without you         I can't
e|------- ------- ------- -------|------- ------- ------- -------|
B|-------------------------------|2---3--------------------------|
G|------------------------2---4--|--------4-------------------2--|
D|4-------------------5----------|-------------------------------|
A|-------------------------------|-------------------------------|
E|-------------------------------|-------------------------------|

e|------- ------- ------- -------|------- ------- ------- -------|
B|-------------------------------|-------------------------------|
G|--------3---------------3------|--------3---------------3------|
D|----4-------4-------3-------3--|----4-------4-------4-------4--|
A|4---------------4--------------|6---------------4--------------|
E|-------------------------------|-------------------------------|




  G               Em7             A
e|3---3-3 3-3-3-3 0---0-0 0---0--|0---0-- 0---0-- 0---0-0 0---0--|
B|3---3-3-3-3-3-3-3---3-3-3---3--|2---2---2---2---2---2-2-2---2--|
G|0---0-0-0-0-0-0-0---0-0-0---0--|2---2---2---2---2---2-2-2---2--|
D|0---0-0-0-0-0-0-2---2-2-2---2--|2---2---2---2---2---2-2-2---2--|
A|2---2-2-2-2-2-2-2---2-2-2---2--|0---0---0---0---0---0-0-0---0--|
E|3---3-3-3-3-3-3-0---0-0-0---0--|-------------------------------|
  live                      I can't 
                                  give anymore               I can't
e|------- ------- ------- -------|------- ------- ------- -------|
B|3------------------------------|-------------------------------|
G|------------------------2------|-------------------------------|
D|-------------------------------|------------------------5------|
A|-------------------------------|-------------------------------|
E|-------------------------------|-------------------------------|

e|------- ------- ------- -------|------- ------- ------- -------|
B|-------------------------------|-------------------------------|
G|--------4----------------------|--------6-------6--------------|
D|----4-------4-----------4------|----6-------6-------6---6---6--|
A|6-------------------6-------6--|4------------------------------|
E|----------------6--------------|-------------------------------|




  D               F#m             Bm              D7
e|2---2-2 2---2-2 2---2-2 2---2-2|2---2-2 2---2-- 2---2-- 2-2----|
B|3---3-3-3---3-3-2---2-2-2---2-2|3---3-3-3---3---1---1---1-1----|
G|2---2-2-2---2-2-2---2-2-2---2-2|4---4-4-4---4---2---2---2-2----|
D|0---0-0-0---0-0-4---4-4-4---4-4|4---4-4-4---4---0---0---0-0----|
A|----------------4---4-4-4---4-4|2---2-2-2---2------------------|
E|----------------2---2-2-2---2-2|-------------------------------|
  live                        if  living 
                                      is without you         I can't
e|------- ------- ------- -------|------- ------- ------- -------|
B|-------------------------------|2---3--------------------------|
G|------------------------2---4--|--------4-------------------2--|
D|4-------------------5----------|-------------------------------|
A|-------------------------------|-------------------------------|
E|-------------------------------|-------------------------------|

e|------- ------- ------- -------|------- ------- ------- -------|
B|-------------------------------|-------------------------------|
G|--------3---------------3------|--------3---------------3------|
D|----4-------4-------3-------3--|----4-------4-------4-------4--|
A|4---------------4--------------|6---------------4--------------|
E|-------------------------------|-------------------------------|




  G               Em7             A
e|3---3-- 3---3-3 0---0-0 0-0-0--|0---0-- 0---0-- 0---0-0 0-0-0--|
B|3---3---3---3-3-3---3-3-3-3-3--|2---2---2---2---2---2-2-2-2-2--|
G|0---0---0---0-0-0---0-0-0-0-0--|2---2---2---2---2---2-2-2-2-2--|
D|0---0---0---0-0-2---2-2-2-2-2--|2---2---2---2---2---2-2-2-2-2--|
A|2---2---2---2-2-2---2-2-2-2-2--|0---0---0---0---0---0-0-0-0-0--|
E|3---3---3---3-3-0---0-0-0-0-0--|-------------------------------|
  live                      I can't 
                                  give anymore               I can't
e|------- ------- ------- -------|------- ------- ------- -------|
B|3------------------------------|-------------------------------|
G|------------------------2------|-------------------------------|
D|-------------------------------|------------------------5------|
A|-------------------------------|-------------------------------|
E|-------------------------------|-------------------------------|

e|------- ------- ------- -------|------- ------- ------- -------|
B|-------------------------------|-------------------------------|
G|--------4----------------------|--------6-------6--------------|
D|----4-------4-----------4------|----6-------6-------6-------6--|
A|6-------------------6-------6--|4------------------------------|
E|----------------6--------------|-------------------------------|




   D               F#m             Bm              D7
e|2---2-2 2---2-2 2---2-2 2---2-2|2---2-2 2---2-- 2---2-2 2---2--|
B|3---3-3-3---3-3-2---2-2-2---2-2|3---3-3-3---3---1---1-1-1---1--|
G|2---2-2-2---2-2-2---2-2-2---2-2|4---4-4-4---4---2---2-2-2---2--|
D|0---0-0-0---0-0-4---4-4-4---4-4|4---4-4-4---4---0---0-0-0---0--|
A|----------------4---4-4-4---4-4|2---2-2-2---2------------------|
E|----------------2---2-2-2---2-2|-------------------------------|
  live                        if  living 
                                      is without you         I can't
e|------- ------- ------- -------|------- ------- ------- -------|
B|-------------------------------|2---3--------------------------|
G|------------------------2---4--|--------4-------------------2--|
D|4-------------------5----------|-------------------------------|
A|-------------------------------|-------------------------------|
E|-------------------------------|-------------------------------|

e|------- ------- ------- -------|------- ------- ------- -------|
B|-------------------------------|-------------------------------|
G|--------3---------------3------|--------3---------------3------|
D|----4-------4-------3-------3--|----4-------4-------4-------4--|
A|4---------------4--------------|6---------------4--------------|
E|-------------------------------|-------------------------------|




  G               Em7             A
e|3---3-- 3---3-3 0---0-0 0---0--|0---0-- 0---0-- 0---0-0 0---0--|
B|3---3---3---3-3-3---3-3-3---3--|2---2---2---2---2---2-2-2---2--|
G|0---0---0---0-0-0---0-0-0---0--|2---2---2---2---2---2-2-2---2--|
D|0---0---0---0-0-2---2-2-2---2--|2---2---2---2---2---2-2-2---2--|
A|2---2---2---2-2-2---2-2-2---2--|0---0---0---0---0---0-0-0---0--|
E|3---3---3---3-3-0---0-0-0---0--|-------------------------------|
  live                      I can't 
                                  give anymore               I can't
e|------- ------- ------- -------|------- ------- ------- -------|
B|3------------------------------|-------------------------------|
G|------------------------2------|-------------------------------|
D|-------------------------------|------------------------5------|
A|-------------------------------|-------------------------------|
E|-------------------------------|-------------------------------|

e|------- ------- ------- -------|------- ------- ------- -------|
B|-------------------------------|-------------------------------|
G|--------4----------------------|--------6-------6--------------|
D|----4-------4-----------4------|----6-------6-------6-------6--|
A|6-------------------6-------6--|4------------------------------|
E|----------------6--------------|-------------------------------|




   D               F#m             Bm              D7
e|2---2-- 2---2-- 2---2-- 2---2--|2---2-2 2---2-- 2---2-- 2------|
B|3---3---3---3---2---2---2---2--|3---3-3-3---3---1---1---1------|
G|2---2---2---2---2---2---2---2--|4---4-4-4---4---2---2---2------|
D|0---0---0---0---4---4---4---4--|4---4-4-4---4---0---0---0------|
A|----------------4---4---4---4--|2---2-2-2---2------------------|
E|----------------2---2---2---2--|-------------------------------|
  live                        if  living 
                                      is without you         I can't
e|------- ------- ------- -------|------- ------- ------- -------|
B|-------------------------------|2---3--------------------------|
G|------------------------2---4--|--------4-------------------2--|
D|4-------------------5----------|-------------------------------|
A|-------------------------------|-------------------------------|
E|-------------------------------|-------------------------------|

e|------- ------- ------- -------|------- ------- ------- -------|
B|-------------------------------|-------------------------------|
G|--------3---------------3------|--------3---------------3------|
D|----4-------4-------3-------3--|----4-------4-------4-------4--|
A|4---------------4--------------|6---------------4--------------|
E|-------------------------------|-------------------------------|




  G               Em7             A
e|3---3-3 3---3-3 0---0-0 0---0--|0---0-- 0---0-- 0---0-0 0---0--|
B|3---3-3-3---3-3-3---3-3-3---3--|2---2---2---2---2---2-2-2---2--|
G|0---0-0-0---0-0-0---0-0-0---0--|2---2---2---2---2---2-2-2---2--|
D|0---0-0-0---0-0-2---2-2-2---2--|2---2---2---2---2---2-2-2---2--|
A|2---2-2-2---2-2-2---2-2-2---2--|0---0---0---0---0---0-0-0---0--|
E|3---3-3-3---3-3-0---0-0-0---0--|-------------------------------|
  live                      I can't 
                                  give anymore               I can't
e|------- ------- ------- -------|------- ------- ------- -------|
B|3------------------------------|-------------------------------|
G|------------------------2------|-------------------------------|
D|-------------------------------|------------------------5------|
A|-------------------------------|-------------------------------|
E|-------------------------------|-------------------------------|

e|------- ------- ------- -------|------- ------- ------- -------|
B|-------------------------------|-------------------------------|
G|--------4----------------------|--------6-------6--------------|
D|----4-------4-----------4------|----6-------6-------6-------6--|
A|6-------------------6-------6--|4------------------------------|
E|----------------6--------------|-------------------------------|




   D               F#m             Bm              D7
e|2---2-- 2---2-2 2---2-- 2---2-2|2---2-- 2---2-- 2---2-- 2---2--|
B|3---3---3---3-3-2---2---2---2-2|3---3---3---3---1---1---1---1--|
G|2---2---2---2-2-2---2---2---2-2|4---4---4---4---2---2---2---2--|
D|0---0---0---0-0-4---4---4---4-4|4---4---4---4---0---0---0---0--|
A|----------------4---4---4---4-4|2---2---2---2------------------|
E|----------------2---2---2---2-2|-------------------------------|
  live                        if  living 
                                      is without you         I can't
                 (oh, no)
e|------- ------- ------- -------|------- ------- ------- -------|
B|-------------------------------|2---3--------------------------|
G|------------------------2---4--|--------4-------------------2--|
D|4-------------------5----------|-------------------------------|
A|-------------------------------|-------------------------------|
E|-------------------------------|-------------------------------|

e|------- ------- ------- -------|------- ------- ------- -------|
B|-------------------------------|-------------------------------|
G|--------3---------------3------|--------3---------------3------|
D|----4-------4-------3-------3--|----4-------4-------4-------4--|
A|4---------------4--------------|6---------------4--------------|
E|-------------------------------|-------------------------------|




  G               Em7             A
e|3---3-3 3-3-3-3 0-0-0-0 0-0-0-0|0---0-- 0---0-0 0---0-0 0---0--|
B|3---3-3-3-3-3-3-3-3-3-3-3-3-3-3|2---2---2---2-2-2---2-2-2---2--|
G|0---0-0-0-0-0-0-0-0-0-0-0-0-0-0|2---2---2---2-2-2---2-2-2---2--|
D|0---0-0-0-0-0-0-2-2-2-2-2-2-2-2|2---2---2---2-2-2---2-2-2---2--|
A|2---2-2-2-2-2-2-2-2-2-2-2-2-2-2|0---0---0---0-0-0---0-0-0---0--|
E|3---3-3-3-3-3-3-0-0-0-0-0-0-0-0|-------------------------------|
  live                      I can't 
                                  give anymore               I can't
e|------- ------- ------- -------|------- ------- ------- -------|
B|3------------------------------|-------------------------------|
G|------------------------2------|-------------------------------|
D|-------------------------------|------------------------5------|
A|-------------------------------|-------------------------------|
E|-------------------------------|-------------------------------|

e|------- ------- ------- -------|------- ------- ------- -------|
B|-------------------------------|-------------------------------|
G|--------4----------------------|--------6-------6-------6------|
D|----4-------4-----------4------|----6-------6---6-------6------|
A|6-------------------6-------6--|4---------------4-------4------|
E|----------------6--------------|-------------------------------|




   D               F#m             Bm              D7
e|2---2-- 2---2-2 2---2-2 2---2-2|2---2-- 2-2-2-- 2---2-2 2------|  
B|3---3---3---3-3-2---2-2-2---2-2|3---3---3-3-3---1---1-1-1------|     
G|2---2---2---2-2-2---2-2-2---2-2|4---4---4-4-4---2---2-2-2------|
D|0---0---0---0-0-4---4-4-4---4-4|4---4---4-4-4---0---0-0-0------|
A|----------------4---4-4-4---4-4|2---2---2-2-2------------------|
E|----------------2---2-2-2---2-2|-------------------------------|
  live                        if  living 
                                      is without you
             (Oh,     no)
e|------- ------- ------- -------|------- ------- ------- -------|
B|-------------------------------|2---3--------------------------|
G|------------------------2---4--|--------4-------------------2--|
D|4-------------------5----------|-------------------------------|
A|-------------------------------|-------------------------------|
E|-------------------------------|-------------------------------|
        
e|------- ------- ------- -------|------- ------- ------- -------|
B|-------------------------------|-------------------------------|
G|--------3---------------3------|--------3---------------3------|
D|----4-------4-------3-------3--|----4-------4-------4-------4--|
A|4---------------4--------------|6---------------4--------------|
E|-------------------------------|-------------------------------|



                                                 
  G               Em7             A
e|3---3-- 3---3-- 0---0-- 0---0--|0------ 0------ 0------ 0------|
B|3---3---3---3---3---3---3---3--|2-------2-------2-------2------|
G|0---0---0---0---0---0---0---0--|2-------2-------2-------2------|
D|0---0---0---0---2---2---2---2--|2-------2-------2-------2------|
A|2---2---2---2---2---2---2---2--|0-------0-------0-------0------|
E|3---3---3---3---0---0---0---0--|-------------------------------|
  
e|------- ------- ------- -------|------- ------- ------- -------|
B|3------------------------------|-------------------------------|
G|------------------------2------|-------------------------------|
D|-------------------------------|------------------------5------|
A|-------------------------------|-------------------------------|
E|-------------------------------|-------------------------------|

e|------- ------- ------- -------|------- ------- ------- -------|
B|-------------------------------|-------------------------------|
G|--------4----------------------|--------6-------6-------6------|
D|----4-------4-----------4------|----6-------6-------6-------6--|
A|6-------------------6-------6--|4------------------------------|
E|----------------6--------------|-------------------------------|




   D               F#m             Bm              D7
e|2---2-2 2---2-2 2-----2 2------|2---2-- 2---2-- 2---2-- 2------|
B|3---3-3-3---3-3-2-----2-2------|3---3---3---3---1---1---1------|
G|2---2-2-2---2-2-2-----2-2------|4---4---4---4---2---2---2------|
D|0---0-0-0---0-0-4-----4-4------|4---4---4---4---0---0---0------|
A|----------------4-----4-4------|2---2---2---2------------------|
E|----------------2-----2-2------|-------------------------------|

e|------- ------- ------- -------|------- ------- ------- -------|
B|-------------------------------|2---3--------------------------|
G|------------------------2---4--|--------4-------------------2--|
D|4-------------------5----------|-------------------------------|
A|-------------------------------|-------------------------------|
E|-------------------------------|-------------------------------|
  
e|------- ------- ------- -------|------- ------- ------- -------|
B|-------------------------------|-------------------------------|
G|--------3---------------3------|--------3---------------3------|
D|----4-------4-------3-------3--|----4-------4-------4-------4--|
A|4---------------4--------------|6---------------4--------------|
E|-------------------------------|-------------------------------|




  G               Em7             A
e|3---3-- 3---3-3 0---0-0 0---0--|0---0-- 0------ 0---0-0 0---0--|
B|3---3---3---3-3-3---3-3-3---3--|2---2---2-------2---2-2-2---2--|
G|0---0---0---0-0-0---0-0-0---0--|2---2---2-------2---2-2-2---2--|
D|0---0---0---0-0-2---2-2-2---2--|2---2---2-------2---2-2-2---2--|
A|2---2---2---2-2-2---2-2-2---2--|0---0---0-------0---0-0-0---0--|
E|3---3---3---3-3-0---0-0-0---0--|-------------------------------|
  
e|------- ------- ------- -------|------- ------- ------- -------|
B|3------------------------------|-------------------------------|
G|------------------------2------|-------------------------------|
D|-------------------------------|------------------------5------|
A|-------------------------------|-------------------------------|
E|-------------------------------|-------------------------------| 

e|------- ------- ------- -------|------- ------- ------- -------|
B|-------------------------------|-------------------------------|
G|--------4----------------------|--------6---------6-6---6------|
D|----4-------4-----------4------|----6-------6-----6-6---6------|
A|6-------------------6-------6--|4-----------------4-4---4------|
E|----------------6--------------|-------------------------------|



 
   D               F#m             Bm              D7
e|2---2-- 2---2-- 2-2-2-2 2---2--|2------ 2------ 2------ 2------|
B|3---3---3---3---2-2-2-2-2---2--|3-------3-------1-------1------|
G|2---2---2---2---2-2-2-2-2---2--|4-------4-------2-------2------|
D|0---0---0---0---4-4-4-4-4---4--|4-------4-------0-------0------|
A|----------------4-4-4-4-4---4--|2-------2----------------------|
E|----------------2-2-2-2-2---2--|-------------------------------|

e|------- ------- ------- -------|------- ------- ------- -------|
B|-------------------------------|2---3--------------------------|
G|------------------------2---4--|--------4-------------------2--|
D|4-------------------5----------|-------------------------------|
A|-------------------------------|-------------------------------|
E|-------------------------------|-------------------------------|
  
e|------- ------- ------- -------|------- ------- ------- -------|
B|-------------------------------|-------------------------------|
G|--------3---------------3------|--------3---------------3------|
D|----4-------4-------3-------3--|----4-------4-------4-------4--|
A|4---------------4--------------|6---------------4--------------|
E|-------------------------------|-------------------------------|

  ..............................Fade.............................



  G               Em7             
e|3------ 3------ 0------ -------|------- ------- ------- -------|
B|3-------3-------3--------------|-------------------------------|
G|0-------0-------0--------------|-------------------------------|
D|0-------0-------2--------------|-------------------------------|
A|2-------2-------2--------------|-------------------------------|
E|3-------3-------0--------------|-------------------------------|
  
e|------- ------- ------- -------|------- ------- ------- -------|
B|3------------------------------|-------------------------------|
G|-------------------------------|-------------------------------|
D|-------------------------------|-------------------------------|
A|-------------------------------|-------------------------------|
E|-------------------------------|-------------------------------|

e|------- ------- ------- -------|------- ------- ------- -------|
B|-------------------------------|-------------------------------|
G|--------4----------------------|-------------------------------|
D|----4-------4------------------|-------------------------------|
A|6------------------------------|-------------------------------|
E|----------------6--------------|-------------------------------|
  ..................









        B  Bend
        R  Release
        /  Slide up
        \  Slide down
        H  Hammer-on
        P  Pull-off
        ~  Vibrato
        +  Harmonic
        x  Mute note
        .  Play note like a dot in standard notation
        ^  Ties two notes together
        (. Pause
Comments