Badfinger - Baby Blue Chords & Tabs

 

Baby Blue Chords & Tabs

Badfinger Chords & Tabs

Version: 3 Type: Tab 0 ratings
1 star 2 stars 3 stars 4 stars 5 stars
comments

Baby Blue Tab

   
----------------------------------------------------------------------

  BADFINGER - BABY BLUE (P. Ham) Released as a single by APPLE RECORDS
               with FLYING as the B side on 10th March 1972.
              
----------------------------------------------------------------------

  Tabbed by:PJVillanueva




  Use a capo on the 2nd fret




Guess I got what I deserved
kept you waiting there too long my love.
All that time without a word
didn't know you'd think that I'd forget
or I'd regret the special love I have for you 
my Baby Blue.

All the days became so long
did you really think I'd do you wrong
Dixie, when I let you go
thought you'd realize that I would know.
I would show the special love I have for you 
I have for you.

What can I do what can I say 
except that I want you by my side.
How can I show you show me the way
don't you know the time I've tried.

Guess that's all I'd have to say
except the feeling just grows stronger ev'ry day.
Just one thing before I go 
take good care baby. Let me know
let it grow the special love you have for me.
My Dixie dear. -





  A                                             Asus4/A...
e|------- ------- ------- -------|------- ------- ------- -------|
B|----------------2--------------|------------2---3---2---3---2--|
G|------------2---2--------------|------------2---2---2---2---2--|
D|2-----------2---2--------------|2-----------2---2---2---2---2--|
A|0-----------0------------------|0------------------------------|
E|-------------------------------|-------------------------------|




e|------- ------- ------- -------|------- ------- ------- -------|
B|----------------2--------------|-------------------------------|
G|------------2---2-----------2--|-------------------------------|
D|2-----------2---2-----------2--|------------2---0--------------|
A|0-----------0------------------|0---2---4-----------4---2---0--|
E|-------------------------------|-------------------------------|



  E
e|4------ 4---4-- 4------ -------|4------ 4---4-- 4------ -------|
B|5-------5---5---5--------------|5-------5---5---5--------------|
G|4-------4---4---4--------------|4-------4---4---4--------------|
D|6-------6---6---6--------------|6-------6---6---6--------------|
A|7-------7---7---7--------------|7-------7---7---7--------------|
E|-------------------------------|-------------------------------|
                  Guess I     got            what I   deserved
e|0------ 0---0-- 0------ -------|0------ 0---0-- 0------ -------|
B|0-------0---0---0--------------|0-------0---0---0--------------|
G|1-------1---1---1--------------|1-------1---1---1--------------|
D|2-------2---2---2--------------|2-------2---2---2--------------|
A|2-------2---2---2--------------|2-------2---2---2--------------|
E|0-------0---0---0--------------|0-------0---0---0--------------|

e|4------ ------- ------- -------|------- ------- ------- -------|
B|5------------------------------|-------------------------------|
G|4------------------------------|-------------------------------|
D|2------------------------------|-------------------------------|
A|-------------------------------|-------------------------------|
E|-------------------------------|-------------------------------|



  D
e|2------ ----2-- 2---2-- -------|2--2--- ----2-- 2------ -------|
B|3-----------3---3---3----------|3--3--------3---3--------------|
G|2-----------2---2---2----------|2--2--------2---2--------------|
D|4-----------4---4---4----------|4--4--------4---4--------------|
A|5-----------5---5---5----------|5--5--------5---5--------------|
E|-------------------------------|-------------------------------|

e|2------ 2---2-- 2---2-- ----2--|2------ ----2-- 2------ -------|
B|3-------3---3---3---3-------3--|3-----------3---3--------------|
G|2-------2---2---2---2-------2--|2-----------2---2--------------|
D|0-------0---0---0---0-------0--|0-----------0---0--------------|
A|-------------------------------|-------------------------------|
E|-------------------------------|-------------------------------|

e|2------ ------- ------- -------|------- ------- ------- -------|
B|3------------------------------|--------3---------------2------|
G|2------------------------------|----2---------------2----------|
D|0------------------------------|4-----------4---2-----------2--|
A|-------------------------------|-------------------------------|
E|-------------------------------|-------------------------------|



  G                               D
e|3------ 3---3-- 3------ -------|2------ ----2-- 2------ -------|
B|3-------3---3---3--------------|3-----------3---3--------------|
G|0-------0---0---0--------------|2-----------2---2--------------|
D|0-------0---0---0--------------|0-----------0---0--------------|
A|2-------2---2---2--------------|-------------------------------|
E|3-------3---3---3--------------|-------------------------------|
                  kept you    waiting         there       too 
e|3------ 3---3-- 3------ 3------|2------ ----2-- 2------ -------|
B|3-------3---3---3-------3------|3-----------3---3--------------|
G|0-------0---0---0-------0------|2-----------2---2--------------|
D|0-------0---0---0-------0------|0-----------0---0--------------|
A|2-------2---2---2-------2------|-------------------------------|
E|3-------3---3---3-------3------|-------------------------------|

e|3------ ------- ------- -------|2------ ------- ------- -------|
B|0------------------------------|3------------------------------|
G|0------------------------------|2------------------------------|
D|0------------------------------|0------------------------------|
A|-------------------------------|-------------------------------|
E|-------------------------------|-------------------------------|



  A
e|5------ ----5-- 5------ -------|5------ ----5-- 5------ -------|
B|5-----------5---5--------------|5-----------5---5--------------|
G|6-----------6---6--------------|6-----------6---6--------------|
D|7-----------7---7--------------|7-----------7---7--------------|
A|7-----------7---7--------------|7-----------7---7--------------|
E|5-----------5---5--------------|5-----------5---5--------------|
  long    my  love.                
e|0------ 0---0-- 0------ 0------|0------ 0---0-- 0------ 0---0--|
B|2-------2---2---2-------2------|2-------2---2---2-------2---2--|
G|2-------2---2---2-------2------|2-------2---2---2-------2---2--|
D|2-------2---2---2-------2------|2-------2---2---2-------2---2--|
A|0-------0---0---0-------0------|0-------0---0---0-------0---0--|
E|-------------------------------|-------------------------------|

e|0------ ------- ------- -------|------- ------- ------- -------|
B|2------------------------------|-------------------------------|
G|2------------------------------|-------------------------------|
D|2------------------------------|------------2---0--------------|
A|0------------------------------|0---2---4-----------4---2---0--|
E|-------------------------------|-------------------------------|


                                                               

  E
e|4------ ----4-- 4------ 4------|4------ ----4-- 4---4-- -------|
B|5-----------5---5-------5------|5-----------5---5---5----------|
G|4-----------4---4-------4------|4-----------4---4---4----------|
D|6-----------6---6-------6------|6-----------6---6---6----------|
A|7-----------7---7-------7------|7-----------7---7---7----------|
E|-------------------------------|-------------------------------|
                  All that    time            without     a   word  
e|0------ 0---0-- 0------ 0------|0------ 0---0-- 0------ 0------|
B|0-------0---0---0-------0------|0-------0---0---0-------0------|
G|1-------1---1---1-------1------|1-------1---1---1-------1------|
D|2-------2---2---2-------2------|2-------2---2---2-------2------|
A|2-------2---2---2-------2------|2-------2---2---2-------2------|
E|0-------0---0---0-------0------|0-------0---0---0-------0------|

e|4------ ------- ------- -------|------- ------- ------- -------|
B|5------------------------------|-------------------------------|
G|4------------------------------|-------------------------------|
D|2------------------------------|-------------------------------|
A|-------------------------------|-------------------------------|
E|-------------------------------|-------------------------------|



  D
e|2---2-- 2------ 2------ ----2--|2------ ----2-- 2---2-- -------|
B|3---3---3-------3-----------3--|3-----------3---3---3----------|
G|2---2---2-------2-----------2--|2-----------2---2---2----------|
D|4---4---4-------4-----------4--|4-----------4---4---4----------|
A|5---5---5-------5-----------5--|5-----------5---5---5----------|
E|-------------------------------|-------------------------------|

e|2---2-- 2---2-- 2---2-- 2------|2------ 2---2-- 2------ 2------|
B|3---3---3---3---3---3---3------|3-------3---3---3-------3------|
G|2---2---2---2---2---2---2------|2-------2---2---2-------2------|
D|0---0---0---0---0---0---0------|0-------0---0---0-------0------|
A|-------------------------------|-------------------------------|
E|-------------------------------|-------------------------------|

e|2------ ------- ------- -------|------- ------- ------- -------|
B|3------------------------------|--------3---------------2------|
G|2------------------------------|----2---------------2----------|
D|0------------------------------|4-----------4---2-----------2--|
A|-------------------------------|-------------------------------|
E|-------------------------------|-------------------------------|



  G                               D
e|3------ 3---3-- 3---3-- -------|2------ 2---2-- 2---2-- -------|
B|3-------3---3---3---3----------|3-------3---3---3---3----------|
G|0-------0---0---0---0----------|2-------2---2---2---2----------|
D|0-------0---0---0---0----------|0-------0---0---0---0----------|
A|2-------2---2---2---2----------|-------------------------------|
E|3-------3---3---3---3----------|-------------------------------|
                  didn't      know    you'd   think           that  
e|3------ 3---3-- 3------ 3------|2------ 2---2-- 2------ 2------|
B|3-------3---3---3-------3------|3-------3---3---3-------3------|
G|0-------0---0---0-------0------|2-------2---2---2-------2------|
D|0-------0---0---0-------0------|0-------0---0---0-------0------|
A|2-------2---2---2-------2------|-------------------------------|
E|3-------3---3---3-------3------|-------------------------------|

e|3------ ------- ------- -------|2------ ------- ------- -------|
B|0------------------------------|3------------------------------|
G|0------------------------------|2------------------------------|
D|0------------------------------|0------------------------------|
A|-------------------------------|-------------------------------|
E|-------------------------------|-------------------------------|



  A
e|5------ ----5-- 5------ -------|5------ 5---5-- 5---5-- -------|
B|5-----------5---5--------------|5-------5---5---5---5----------|
G|6-----------6---6--------------|6-------6---6---6---6----------|
D|7-----------7---7--------------|7-------7---7---7---7----------|
A|7-----------7---7--------------|7-------7---7---7---7----------|
E|5-----------5---5--------------|5-------5---5---5---5----------|
  I'd     forget                                              or
e|0------ 0---0-- 0---0-- -------|0---0-- 0---0-- 0------ 0------|
B|2-------2---2---2---2----------|2---2---2---2---2-------2------|
G|2-------2---2---2---2----------|2---2---2---2---2-------2------|
D|2-------2---2---2---2----------|2---2---2---2---2-------2------|
A|0-------0---0---0---0----------|0---0---0---0---0-------0------|
E|-------------------------------|-------------------------------|

e|0------ ------- ------- -------|------- ------- ------- -------|
B|2------------------------------|-------------------------------|
G|2------------------------------|-------------------------------|
D|2------------------------------|------------2---0--------------|
A|0------------------------------|0---2---4-----------4---2---0--|
E|-------------------------------|-------------------------------|



  E
e|4------ ----4-- 4------ -------|4---4-- ----4-- 4------ -------|
B|5-----------5---5--------------|5---5-------5---5--------------|
G|4-----------4---4--------------|4---4-------4---4--------------|
D|6-----------6---6--------------|6---6-------6---6--------------|
A|7-----------7---7--------------|7---7-------7---7--------------|
E|-------------------------------|-------------------------------|
  I'd     regret 
e|0------ 0---0-- 0---0-- -------|0------ 0---0-- 0------ -------|
B|0-------0---0---0---0----------|0-------0---0---0--------------|
G|1-------1---1---1---1----------|1-------1---1---1--------------|
D|2-------2---2---2---2----------|2-------2---2---2--------------|
A|2-------2---2---2---2----------|2-------2---2---2--------------|
E|0-------0---0---0---0----------|0-------0---0---0--------------|

e|4------ ------- ------- -------|------- ------- ------- -------|
B|5------------------------------|------------0------------------|
G|4------------------------------|--------1-------2---1----------|
D|2------------------------------|2---4-------------------4---2--|
A|-------------------------------|-------------------------------|
E|-------------------------------|-------------------------------|



  Bm                                   
e|2------ 2---2-- 2------ -------|2------ 2---2-- 2---2-- -------|
B|3-------3---3---3--------------|3-------3---3---3---3----------|
G|4-------4---4---4--------------|4-------4---4---4---4----------|
D|4-------4---4---4--------------|4-------4---4---4---4----------|
A|2-------2---2---2--------------|2-------2---2---2---2----------|
E|-------------------------------|-------------------------------|
              the special     love            I   have for    you 
e|2------ 2---2-- 2------ 2------|2------ 2---2-- 2------ -------|
B|3-------3---3---3-------3------|3-------3---3---3--------------|
G|4-------4---4---4-------4------|4-------4---4---4--------------|
D|4-------4---4---4-------4------|4-------4---4---4--------------|
A|2-------2---2---2-------2------|2-------2---2---2--------------|
E|-------------------------------|-------------------------------|

e|2------ ------- ------- -------|------- ------- ------- -------|
B|3------------------------------|-------------------------------|
G|4------------------------------|-------------------------------|
D|4------------------------------|-------------------------------|
A|2------------------------------|-------------------------------|
E|-------------------------------|-------------------------------|





e|2------ 2---2-- 2------ 2---2--|2------ 2---2-- 2------ -------|
B|3-------3---3---3-------3---3--|3-------3---3---3--------------|
G|2-------2---2---2-------2---2--|2-------2---2---2--------------|
D|4-------4---4---4-------4---4--|4-------4---4---4--------------|
A|5-------5---5---5-------5---5--|5-------5---5---5--------------|
E|-------------------------------|-------------------------------|
                                              my  Baby        Blue.
e|2------ 2---2-- 2------ 2------|2------ ------- 2------ -------|
B|3-------3---3---3-------3------|3---------------3--------------|
G|2-------2---2---2-------2------|2---------------2--------------|
D|0-------0---0---0-------0------|0---------------0--------------|
A|-------------------------------|-------------------------------|
E|-------------------------------|-------------------------------|

e|------- ------- ------- ----2--|------- ----5-- ----5-- -------|
B|------------3------------------|----3-------3-------3----------|
G|--------2-----------2----------|--------2----------------------|
D|----4-------------------4------|-------------------------------|
A|5------------------------------|-------------------------------|
E|-------------------------------|-------------------------------|




  A
e|5---5-- 5------ 5---5-- 5---5--|5---5-- 5------ 5---5-- 5------|
B|5---5---5-------5---5---5---5--|5---5---5-------5---5---5------|
G|6---6---6-------6---6---6---6--|6---6---6-------6---6---6------|
D|7---7---7-------7---7---7---7--|7---7---7-------7---7---7------|
A|7---7---7-------7---7---7---7--|7---7---7-------7---7---7------|
E|-------------------------------|-------------------------------|

e|0------ 0---0-- 0---0-- 0------|0---0-- 0------ 0---0-- 0---0--|
B|2-------2---2---2---2---2------|2---2---2-------2---2---2---2--|
G|2-------2---2---2---2---2------|2---2---2-------2---2---2---2--|
D|2-------2---2---2---2---2------|2---2---2-------2---2---2---2--|
A|0-------0---0---0---0---0------|0---0---0-------0---0---0---0--|
E|-------------------------------|-------------------------------|

e|------- ------- ------- -------|------- ------- ------- -------|
B|----------------2--------------|------------2---3---2---3---2--|
G|------------2---2--------------|------------2---2---2---2---2--|
D|2-----------2---2--------------|2-----------2---2---2---2---2--|
A|0-----------0------------------|0------------------------------|
E|-------------------------------|-------------------------------|
                                                Asus4/A...




e|5---5-- 5------ 5---5-- 5------|5---5-- 5------ 5---5-- 5------|
B|5---5---5-------5---5---5------|5---5---5-------5---5---5------|
G|6---6---6-------6---6---6------|6---6---6-------6---6---6------|
D|7---7---7-------7---7---7------|7---7---7-------7---7---7------|
A|7---7---7-------7---7---7------|7---7---7-------7---7---7------|
E|-------------------------------|-------------------------------|

e|0---0-- 0------ 0---0-- 0------|0------ 0------ 0------ 0------|
B|2---2---2-------2---2---2------|2-------2-------2-------2------|
G|2---2---2-------2---2---2------|2-------2-------2-------2------|
D|2---2---2-------2---2---2------|2-------2-------2-------2------|
A|0---0---0-------0---0---0------|0-------0-------0-------0------|
E|-------------------------------|-------------------------------|

e|------- ------- ------- -------|------- ------- ------- -------|
B|----------------2--------------|-------------------------------|
G|------------2---2--------------|-------------------------------|
D|2-----------2---2--------------|------------2---0--------------|
A|0-----------0------------------|0---2---4-----------4---2---0--|
E|-------------------------------|-------------------------------|   




  E
e|4---4-- 4------ 4---4-- 4------|4---4-- 4------ 4---4-- 4------|
B|5---5---5-------5---5---5------|5---5---5-------5---5---5------|
G|4---4---4-------4---4---4------|4---4---4-------4---4---4------|
D|6---6---6-------6---6---6------|6---6---6-------6---6---6------|
A|7---7---7-------7---7---6------|7---7---7-------7---7---7------|
E|-------------------------------|-------------------------------|
                  All the     days            became  so      long             
e|0------ 0---0-- 0---0-- 0------|0---0-- 0---0-- 0------ 0---0--|
B|0-------0---0---0---0---0------|0---0---0---0---0-------0---0--|
G|1-------1---1---1---1---1------|1---1---1---1---1-------1---1--|
D|2-------2---2---2---2---2------|2---2---2---2---2-------2---2--|
A|2-------2---2---2---2---2------|2---2---2---2---2-------2---2--|
E|0-------0---0---0---0---0------|0---0---0---0---0-------0---0--|

e|4------ ------- ------- -------|------- ------- ------- -------|
B|5------------------------------|-------------------------------|
G|4------------------------------|-------------------------------|
D|2------------------------------|-------------------------------|
A|-------------------------------|-------------------------------|
E|-------------------------------|-------------------------------|



  D
e|2---2-- 2---2-- 2---2-- 2---2--|2---2-- 2---2-- 2---2-- 2---2--|
B|3---3---3---3---3---3---3---3--|3---3---3---3---3---3---3---3--|
G|2---2---2---2---2---2---2---2--|2---2---2---2---2---2---2---2--|
D|4---4---4---4---4---4---4---4--|4---4---4---4---4---4---4---4--|
A|5---5---5---5---5---5---5---5--|5---5---5---5---5---5---5---5--|
E|-------------------------------|-------------------------------|

e|2---2-- 2---2-- 2---2-- 2---2--|2---2-- 2---2-- 2------ 2------|
B|3---3---3---3---3---3---3---3--|3---3---3---3---3-------3------|
G|2---2---2---2---2---2---2---2--|2---2---2---2---2-------2------|
D|0---0---0---0---0---0---0---0--|0---0---0---0---0-------0------|
A|-------------------------------|-------------------------------|
E|-------------------------------|-------------------------------|

e|2------ ------- ------- -------|------- ------- ------- -------|
B|3------------------------------|--------3---------------2------|
G|2------------------------------|----2---------------2----------|
D|0------------------------------|4-----------4---2-----------2--|
A|-------------------------------|-------------------------------|
E|-------------------------------|-------------------------------|



  G                               D
e|3---3-- 3------ 3------ 3------|2------ 2---2-- 2---2-- 2------|
B|3---3---3-------3-------3------|3-------3---3---3---3---3------|
G|0---0---0-------0-------0------|2-------2---2---2---2---2------|
D|0---0---0-------0-------0------|0-------0---0---0---0---0------|
A|2---2---2-------2-------2------|-------------------------------|
E|3---3---3-------3-------3------|-------------------------------|
                  did you     really          think           I'd  
e|3---3-- 3---3-- 3---3-- 3------|2---2-- 2---2-- 2---2-- 2------|
B|3---3---3---3---3---3---3------|3---3---3---3---3---3---3------|
G|0---0---0---0---0---0---0------|2---2---2---2---2---2---2------|
D|0---0---0---0---0---0---0------|0---0---0---0---0---0---0------|
A|2---2---2---2---2---2---2------|-------------------------------|
E|3---3---3---3---3---3---3------|-------------------------------|

e|3------ ------- ------- -------|2------ ------- ------- -------|
B|0------------------------------|3------------------------------|
G|0------------------------------|2------------------------------|
D|0------------------------------|0------------------------------|
A|-------------------------------|-------------------------------|
E|-------------------------------|-------------------------------|



  A
e|5------ 5------ 5---5-- 5------|5------ 5------ 5---5-- 5------|
B|5-------5-------5---5---5------|5-------5-------5---5---5------|
G|6-------6-------6---6---6------|6-------6-------6---6---6------|
D|7-------7-------7---7---7------|7-------7-------7---7---7------|
A|7-------7-------7---7---7------|7-------7-------7---7---7------|
E|5-------5-------5---5---5------|5-------5-------5---5---5------|
  do      you wrong                
e|0------ 0------ 0---0-- 0---0--|0---0-- 0---0-- 0------ 0------|
B|2-------2-------2---2---2---2--|2---2---2---2---2-------2------|
G|2-------2-------2---2---2---2--|2---2---2---2---2-------2------|
D|2-------2-------2---2---2---2--|2---2---2---2---2-------2------|
A|0-------0-------0---0---0---0--|0---0---0---0---0-------0------|
E|-------------------------------|-------------------------------|

e|0------ ------- ------- -------|------- ------- ------- -------|
B|2------------------------------|-------------------------------|
G|2------------------------------|-------------------------------|
D|2------------------------------|------------2---0--------------|
A|0------------------------------|0---2---4-----------4---2---0--|
E|-------------------------------|-------------------------------|


                                                               

  E
e|4------ 4---4-- 4------ 4---4--|4------ 4---4-- 4------ 4------|
B|5-------5---5---5-------5---5--|5-------5---5---5-------5------|
G|4-------4---4---4-------4---4--|4-------4---4---4-------4------|
D|6-------6---6---6-------6---6--|6-------6---6---6-------6------|
A|7-------7---7---7-------7---7--|7-------7---7---7-------7------|
E|-------------------------------|-------------------------------|
                  Dixie,          when I      let     you     go             
e|0---0-- 0---0-- 0------ 0------|0------ 0---0-- 0------ 0------|
B|0---0---0---0---0-------0------|0-------0---0---0-------0------|
G|1---1---1---1---1-------1------|1-------1---1---1-------1------|
D|2---2---2---2---2-------2------|2-------2---2---2-------2------|
A|2---2---2---2---2-------2------|2-------2---2---2-------2------|
E|0---0---0---0---0-------0------|0-------0---0---0-------0------|

e|4------ ------- ------- -------|------- ------- ------- -------|
B|5------------------------------|-------------------------------|
G|4------------------------------|-------------------------------|
D|2------------------------------|-------------------------------|
A|-------------------------------|-------------------------------|
E|-------------------------------|-------------------------------|



  D        
e|2------ 2---2-- 2---2-- 2---2--|2------ 2---2-- 2------ 2------|
B|3-------3---3---3---3---3---3--|3-------3---3---3-------3------|
G|2-------2---2---2---2---2---2--|2-------2---2---2-------2------|
D|4-------4---4---4---4---4---4--|4-------4---4---4-------4------|
A|5-------5---5---5---5---5---5--|5-------5---5---5-------5------|
E|-------------------------------|-------------------------------|

e|2---2-- 2---2-- 2---2-- 2---2--|2------ 2---2-- 2---2-- 2---2--|
B|3---3---3---3---3---3---3---3--|3-------3---3---3---3---3---3--|
G|2---2---2---2---2---2---2---2--|2-------2---2---2---2---2---2--|
D|0---0---0---0---0---0---0---0--|0-------0---0---0---0---0---0--|
A|-------------------------------|-------------------------------|
E|-------------------------------|-------------------------------|

e|2------ ------- ------- -------|------- ------- ------- -------|
B|3------------------------------|--------3---------------2------|
G|2------------------------------|----2---------------2----------|
D|0------------------------------|4-----------4---2-----------2--|
A|-------------------------------|-------------------------------|
E|-------------------------------|-------------------------------|



  G                               D
e|3------ 3---3-- 3---3-- 3------|2------ 2---2-- 2---2-- 2------|
B|3-------3---3---3---3---3------|3-------3---3---3---3---3------|
G|0-------0---0---0---0---0------|2-------2---2---2---2---2------|
D|0-------0---0---0---0---0------|0-------0---0---0---0---0------|
A|2-------2---2---2---2---2------|-------------------------------|
E|3-------3---3---3---3---3------|-------------------------------|
                 thought you'd realize    
e|3---3-- 3---3-- 3---3-- 3------|2---2-- 2---2-- 2---2-- 2------|
B|3---3---3---3---3---3---3------|3---3---3---3---3---3---3------|
G|0---0---0---0---0---0---0------|2---2---2---2---2---2---2------|
D|0---0---0---0---0---0---0------|0---0---0---0---0---0---0------|
A|2---2---2---2---2---2---2------|-------------------------------|
E|3---3---3---3---3---3---3------|-------------------------------|

e|3------ ------- ------- -------|2------ ------- ------- -------|
B|0------------------------------|3------------------------------|
G|0------------------------------|2------------------------------|
D|0------------------------------|0------------------------------|
A|-------------------------------|-------------------------------|
E|-------------------------------|-------------------------------|



  A
e|5------ 5---5-- 5------ 5---5--|5------ 5---5-- 5---5-- 5------|
B|5-------5---5---5-------5---5--|5-------5---5---5---5---5------|
G|6-------6---6---6-------6---6--|6-------6---6---6---6---6------|
D|7-------7---7---7-------7---7--|7-------7---7---7---7---7------|
A|7-------7---7---7-------7---7--|7-------7---7---7---7---7------|
E|5-------5---5---5-------5---5--|5-------5---5---5---5---5------|
  I       would know.  
e|0------ 0------ 0---0-- 0---0--|0---0-- 0---0-- 0---0-- 0---0--|
B|2-------2-------2---2---2---2--|2---2---2---2---2---2---2---2--|
G|2-------2-------2---2---2---2--|2---2---2---2---2---2---2---2--|
D|2-------2-------2---2---2---2--|2---2---2---2---2---2---2---2--|
A|0-------0-------0---0---0---0--|0---0---0---0---0---0---0---0--|
E|-------------------------------|-------------------------------|

e|0------ ------- ------- -------|------- ------- ------- -------|
B|2---------------2--------------|-------------------------------|
G|2---------------2--------------|-------------------------------|
D|2-----------2---2--------------|------------2---0--------------|
A|0-----------0------------------|0---2---4-----------4---2---0--|
E|-------------------------------|-------------------------------|



  E
e|4---4-- 4------ 4---4-- 4------|4---4-- 4------ 4---4-- 4------|
B|5---5---5-------5---5---5------|5---5---5-------5---5---5------|
G|4---4---4-------4---4---4------|4---4---4-------4---4---4------|
D|6---6---6-------6---6---6------|6---6---6-------6---6---6------|
A|7---7---7-------7---7---7------|7---7---7-------7---7---7------|
E|-------------------------------|-------------------------------|
  I       would show 
e|0---0-- 0------ 0---0-- 0---0--|0---0-- 0------ 0------ 0------|
B|0---0---0-------0---0---0---0--|0---0---0-------0-------0------|
G|1---1---1-------1---1---1---1--|1---1---1-------1-------1------|
D|2---2---2-------2---2---2---2--|2---2---2-------2-------2------|
A|2---2---2-------2---2---2---2--|2---2---2-------2-------2------|
E|0---0---0-------0---0---0---0--|0---0---0-------0-------0------|

e|4------ ------- ------- -------|------- ------- ------- -------|
B|5------------------------------|------------0------------------|
G|4------------------------------|--------1-------2---1----------|
D|2------------------------------|2---4-------------------4---2--|
A|-------------------------------|-------------------------------|
E|-------------------------------|-------------------------------|



  Bm                              D
e|2------ 2---2-- 2------ 2------|2---2-- 2---2-- 2---2-- 2------|
B|3-------3---3---3-------3------|3---3---3---3---3---3---3------|
G|4-------4---4---4-------4------|2---2---2---2---2---2---2------|
D|4-------4---4---4-------4------|4---4---4---4---4---4---4------|
A|2-------2---2---2-------2------|5---5---5---5---5---5---5------|
E|-------------------------------|-------------------------------|   
              the special     love            I   have for    you
e|2---2-- 2---2-- 2------ 2------|2---2-- 2---2-- 2---2-- 2------|
B|3---3---3---3---3-------3------|3---3---3---3---3---3---3------|
G|4---4---4---4---4-------4------|2---2---2---2---2---2---2------|
D|4---4---4---4---4-------4------|0---0---0---0---0---0---0------|
A|2---2---2---2---2-------2------|-------------------------------|
E|-------------------------------|-------------------------------|

e|2------ ------- ------- -------|2------ ------- ------- -------|
B|3------------------------------|3------------------------------|
G|4------------------------------|2------------------------------|
D|4------------------------------|0------------------------------| 
A|2------------------------------|-------------------------------|
E|-------------------------------|-------------------------------|





e|2---2-- 2------ 2---2-- 2------|2---2-- 2------ 2------ 2------|
B|3---3---3-------3---3---3------|3---3---3-------3-------3------|
G|2---2---2-------2---2---2------|2---2---2-------2-------2------|
D|4---4---4-------4---4---4------|4---4---4-------4-------4------|
A|5---5---5-------5---5---5------|5---5---5-------5-------5------|
E|-------------------------------|-------------------------------|
                                              My  baby        Blue
e|2------ 2------ 2------ 2------|2------ ------- 2------ -------|
B|3-------3-------3-------3------|3---------------3--------------|
G|2-------2-------2-------2------|2---------------2--------------|
D|0-------0-------0-------0------|0---------------0--------------|
A|-------------------------------|-------------------------------|
E|-------------------------------|-------------------------------|

e|------- ------- ------- ----2--|------- ----5-- ----5-- -------|
B|------------3------------------|----3-------3-------3----------|
G|--------2-----------2----------|--------2----------------------|
D|----4-------------------4------|-------------------------------|
A|5------------------------------|-------------------------------|
E|-------------------------------|-------------------------------|




  A
e|5---5-- 5------ 5---5-- 5---5--|5---5-- 5------ 5---5-- 5------|
B|5---5---5-------5---5---5---5--|5---5---5-------5---5---5------|
G|6---6---6-------6---6---6---6--|6---6---6-------6---6---6------|
D|7---7---7-------7---7---7---7--|7---7---7-------7---7---7------|
A|7---7---7-------7---7---7---7--|7---7---7-------7---7---7------|
E|5---5---5-------5---5---5---5--|5---5---5-------5---5---5------|
[ Tab from: http://www.guitartabs.cc/tabs/b/badfinger/baby_blue_tab_ver_3.html ]
e|0------ 0---0-- 0---0-- 0---0--|0---0-- 0---0-- 0---0-- 0---0--|
B|2-------2---2---2---2---2---2--|2---2---2---2---2---2---2---2--|
G|2-------2---2---2---2---2---2--|2---2---2---2---2---2---2---2--|
D|2-------2---2---2---2---2---2--|2---2---2---2---2---2---2---2--|
A|0-------0---0---0---0---0---0--|0---0---0---0---0---0---0---0--|
E|-------------------------------|-------------------------------|

e|------- ------- ------- -------|------- ------- ------- -------|
B|----------------2--------------|------------2---3---2---3---2--|
G|------------2---2--------------|------------2---2---2---2---2--|
D|2-----------2---2--------------|2-----------2---2---2---2---2--|
A|0-----------0------------------|0------------------------------|
E|-------------------------------|-------------------------------|





e|5---5-- 5------ 5---5-- 5------|5---5-- 5------ 5------ 5------|
B|5---5---5-------5---5---5------|5---5---2-------5-------5------|
G|6---2---2-------6---6---6------|6---6---6-------6-------6------|
D|7---2---2-------7---7---7------|7---7---7-------7-------7------|
A|7---0---0-------7---7---7------|7---7---7-------7-------7------|
E|5---5---5-------5---5---5------|5---5---5-------5-------5------|

e|0---0-- 0------ 0---0-- 0------|0------ 0------ 0------ 0------|
B|2---2---2-------2---2---2------|2-------2-------2-------2------|
G|2---2---2-------2---2---2------|2-------2-------2-------2------|
D|2---2---2-------2---2---2------|2-------2-------2-------2------|
A|0---0---0-------0---0---0------|0-------0-------0-------0------|
E|-------------------------------|-------------------------------|

e|------- ------- ------- -------|------- ------- ------- -------|
B|----------------2--------------|-------------------------------|
G|------------2---2--------------|-------------------------------|
D|2-----------2---2--------------|------------2---0--------------|
A|0-----------0------------------|0---2---4-----------4---2------|
E|-------------------------------|----------------------------4--|



 
  Dbm                             F#m
e|4------ 4---4-- 4------ -------|2------ ----2-- 2---2-- -------|
B|5-------5---5---5--------------|2-----------2---2---2----------|
G|6-------6---6---6--------------|2-----------2---2---2----------|
D|6-------6---6---6--------------|4-----------4---4---4----------|
A|4-------4---4---4--------------|4-----------4---4---4----------|
E|-------------------------------|2-----------2---2---2----------|  
                  What can I  do 
e|4------ 4------ 4------ 4------|2------ 2------ 2------ 2------|
B|5-------5-------5-------5------|2-------2-------2-------2------|
G|6-------6-------6-------6------|2-------2-------2-------2------|
D|6-------6-------6-------6------|4-------4-------4-------4------|
A|4-------4-------4-------4------|4-------4-------4-------4------|
E|-------------------------------|2-------2-------2-------2------|




  F#mmaj7                         Bm
e|2------ ----2-- 2------ -------|2---2-- ----2-- 2---2-- ----2--|
B|2-----------2---2--------------|3---3-------3---3---3-------3--|
G|2-----------2---2--------------|4---4-------4---4---4-------4--|
D|3-----------3---3--------------|4---4-------4---4---4-------4--|
A|4-----------4---4--------------|2---2-------2---2---2-------2--|
E|2-----------2---2--------------|-------------------------------|
                  what can I say 
e|2------ 2------ 2------ 2------|2------ 2------ 2------ 2------|
B|2-------2-------2-------2------|3-------3-------3-------3------|
G|2-------2-------2-------2------|4-------4-------4-------4------|
D|3-------3-------3-------3------|4-------4-------4-------4------|
A|4-------4-------4-------4------|2-------2-------2-------2------|
E|2-------2-------2-------2------|-------------------------------|




  Bm7                             G
e|2---2-- ----2-- 2---2-- -------|3------ 3------ 3---3-- 3------|
B|3---3-------3---3---3----------|3-------3-------3---3---3------|
G|2---2-------2---2---2----------|0-------0-------0---0---0------|
D|4---4-------4---4---4----------|0-------0-------0---0---0------|
A|2---2-------2---2---2----------|2-------2-------2---2---2------|
E|-------------------------------|3-------3-------3---3---3------|
                                          except     that I   want 
e|2------ 2------ 2------ 2------|3------ ----3-- ------- -------|
B|3-------3-------3-------3------|3-----------3------------------|
G|2-------2-------2-------2------|4-----------4------------------|
D|4-------4-------4-------4------|5-----------5------------------|
A|2-------2-------2-------2------|5-----------5------------------|
E|-------------------------------|3-----------3------------------|




  D                               A
e|2------ ----2-- 2------ -------|5------ ----5-- 5---5-- ----5--|
B|3-----------3---3--------------|5-----------5---5---5-------5--|
G|2-----------2---2--------------|6-----------6---6---6-------6--|
D|0-----------0---0--------------|7-----------7---7---7-------7--|
A|-------------------------------|7-----------7---7---7-------7--|
E|-------------------------------|5-----------5---5---5-------5--| 
      you         by  my      side.
e|2------ ----2-- ------- -------|------- ------- ------- -------|
B|3-----------3------------------|2-----------2------------------|
G|2-----------2------------------|2-----------2------------------|
D|0-----------0------------------|2-----------2------------------|
A|-------------------------------|0-----------0------------------|
E|-------------------------------|-------------------------------|





e|5------ 5---5-- 5------ -------|
B|5-------5---5---5--------------|
G|6-------6---6---6--------------|
D|7-------7---7---7--------------|
A|7-------7---7---7--------------|
E|5-------5---5---5--------------|

e|------- ------- ------- -------|
B|-------------------------------|
G|-------------------------------|
D|------------2---0--------------|
A|0---2---4-----------4---2---0--|
E|-------------------------------|         




  Dbm                             F#m
e|4---4-- 4---4-- 4------ -------|2------ ----2-- 2---2-- -------|
B|5---5---5---5---5--------------|2-----------2---2---2----------|
G|6---6---6---6---6--------------|2-----------2---2---2----------|
D|6---6---6---6---6--------------|4-----------4---4---4----------|
A|4---4---4---4---4--------------|4-----------4---4---4----------|
E|-------------------------------|2-----------2---2---2----------|
                  How can I   show 
e|4------ 4------ 4------ 4------|2------ 2------ 2------ 2------|
B|5-------5-------5-------5------|2-------2-------2-------2------|
G|6-------6-------6-------6------|2-------2-------2-------2------|
D|6-------6-------6-------6------|4-------4-------4-------4------|
A|4-------4-------4-------4------|4-------4-------4-------4------|
E|-------------------------------|2-------2-------2-------2------|




  F#mmaj7                         Bm
e|2------ 2---2-- 2---2-- -------|2------ 2---2-- 2---2-- 2---2--|
B|2-------2---2---2---2----------|3-------3---3---3---3---3---3--|
G|2-------2---2---2---2----------|4-------4---4---4---4---4---4--|
D|3-------3---3---3---3----------|4-------4---4---4---4---4---4--|
A|4-------4---4---4---4----------|2-------2---2---2---2---2---2--|
E|2-------2---2---2---2----------|-------------------------------|
  you             show me the way
e|2------ 2------ 2------ 2------|2------ 2------ 2------ 2------|
B|2-------2-------2-------2------|3-------3-------3-------3------|
G|2-------2-------2-------2------|4-------4-------4-------4------|
D|3-------3-------3-------3------|4-------4-------4-------4------|
A|4-------4-------4-------4------|2-------2-------2-------2------|
E|2-------2-------2-------2------|-------------------------------|




  Bm7                             G
e|2---2-- ----2-- 2---2-- 2------|3------ 3------ 3------ 3------|
B|3---3-------3---3---3---3------|3-------3-------3-------3------|
G|2---2-------2---2---2---2------|0-------0-------0-------0------|
D|4---4-------4---4---4---4------|0-------0-------0-------0------|
A|2---2-------2---2---2---2------|2-------2-------2-------2------|
E|-------------------------------|3-------3-------3-------3------|
                                                  don't you   know 
e|2------ 2------ 2------ 2------|3------ ----3-- ------- -------|
B|3-------3-------3-------3------|3-----------3------------------|
G|2-------2-------2-------2------|4-----------4------------------|
D|4-------4-------4-------4------|5-----------5------------------|
A|2-------2-------2-------2------|5-----------5------------------|
E|-------------------------------|3-----------3------------------|




  D
e|2------ 2------ 2------ 2------|
B|3-------3-------3-------3------|
G|2-------2-------2-------2------|
D|0-------0-------0-------0------|
A|-------------------------------|
E|-------------------------------|
              the times I've  tried.
e|2------ ----2-- ------- -------|
B|3-----------3------------------|
G|2-----------2------------------|
D|0-----------0------------------|
A|-------------------------------|
E|-------------------------------|




  C                               G
e|0------ 0---0-- 0------ 0---0--|3------ 3---3-- 3------ 3------|
B|1-------1---1---1-------1---1--|3-------3---3---3-------3------|
G|0-------0---0---0-------0---0--|0-------0---0---0-------0------|
D|2-------2---2---2-------2---2--|0-------0---0---0-------0------|
A|3-------3---3---3-------3---3--|2-------2---2---2-------2------|
E|3-------3---3---3-------3---3--|3-------3---3---3-------3------|

e|------- ------- ------- -------|------- 3------ ------- 3------|
B|-------------------------------|--------3---------------3------|
G|5-------5-----------5---5------|--------4---------------4------|
D|5-------5-----------5---5------|5---5---5---5---5---5---5------|
A|3-------3-----------3---3------|5---5---5---5---5---5---5------|
E|-------------------------------|3---3---3---3---3---3---3------|

e|------- ------- ------- -------|------- ------- ------- -------|
B|--------5----------------------|----8--------------------------|
G|----------------7B9R7---5------|--------------------9-P-7---9B11
D|----------------------------7/9|-------------------------------|
A|-------------------------------|-------------------------------|
E|-------------------------------|-------------------------------|




  D                               A
e|2---2-- 2---2-- 2---2-- 2------|5---5-- 5---5-- 5------ 5------|
B|3---3---3---3---3---3---3------|5---5---5---5---5-------5------|
G|2---2---2---2---2---2---2------|6---6---6---6---6-------6------|
D|0---0---0---0---0---0---0------|7---7---7---7---7-------7------|
A|-------------------------------|7---7---7---7---7-------7------|
E|-------------------------------|5---5---5---5---5-------5------|

e|------- 5------ ------- 5------|------- 5------ ------- 5------|
B|--------7---------------7------|--------5---------------5------|
G|7---7---7---7-------7---7------|--------6---------------6------|
D|7---7---7---7-------7---7------|7---7---7---7-------7---7------|
A|5---5---5---5-------5---5------|7---7---7---7-------7---7------|
E|-------------------------------|5---5---5---5-------5---5------|

e|------- ------- ------- -------|------- ------- ------- -------|
B|-------------------------------|-------------------------------|
G|--------9B11----9B11R9--7------|-------------------------------|
D|----------------------------9B11-------------------------------|
A|-------------------------------|-------------------------------|
E|-------------------------------|-------------------------------|




  C                               G
e|0------ 0---0-- 0------ 0------|3------ 3---3-- 3------ 3------|
B|1-------1---1---1-------1------|3-------3---3---3-------3------|
G|0-------0---0---0-------0------|0-------0---0---0-------0------|
D|2-------2---2---2-------2------|0-------0---0---0-------0------|
A|3-------3---3---3-------3------|2-------2---2---2-------2------|
E|3-------3---3---3-------3------|3-------3---3---3-------3------|

e|------- 3------ ------- 3------|------- 3------ ------- 3------|
B|--------5---------------5------|--------3---------------3------|
G|5---5---5-------5---5---5------|--------4---------------4------|
D|5---5---5-------5---5---5------|5---5---5-------5---5---5------|
A|3---3---3-------3---3---3------|5---5---5-------5---5---5------|
E|-------------------------------|3---3---3-------3---3---3------|

e|------- ------- ------- -------|------- ----7-- ----10- ----12B|
B|7B8-----7B8-----7B8R7---5------|----8--------------------------|
G|----------------------------7--|-------------------------------|
D|-------------------------------|-------------------------------|
A|-------------------------------|-------------------------------|
E|-------------------------------|-------------------------------|



                                 (.
  D                               A
e|2------ 2---2-- 2------ 2------|0------ ------- ------- -------|
B|3-------3---3---3-------3------|2------------------------------|
G|2-------2---2---2-------2------|2------------------------------|
D|0-------0---0---0-------0------|2------------------------------|
A|-------------------------------|0------------------------------|
E|-------------------------------|-------------------------------|

e|------- 5------ ------- 5------|5------ ------- ------- -------|
B|--------7---------------7------|5------------------------------|
G|7---7---7---7---7---7---7------|6------------------------------|
D|7---7---7---7---7---7---7------|7------------------------------|
A|5---5---5---5---5---5---5------|7------------------------------|
E|-------------------------------|5------------------------------|

e|14----- 12B14-- 12B14R1210---16B17--~-- ------- ------- -------|
B|-------------------------------|-------------------------------|
G|-------------------------------|-------------------------------|
D|-------------------------------|-------------------------------|
A|-------------------------------|-------------------------------|
E|-------------------------------|-------------------------------|



  X X X x x x X x x X x x X x x

e|------- ------- ------- -------|
B|-------------------------------|
G|-------------------------------|
D|-------------------------------|
A|-------------------------------|
E|-------------------------------|                         




  E
e|4------ 4------ 4------ 4------|4---4-- 4------ 4------ 4------|
B|5-------5-------5-------5------|5---5---5-------5-------5------|
G|4-------4-------4-------4------|4---4---4-------4-------4------|
D|6-------6-------6-------6------|6---6---6-------6-------6------|
A|7-------7-------7-------7------|7---7---7-------7-------7------|
E|-------------------------------|-------------------------------|
                  Guess that's all            I'd have to     say
e|0------ 0---0-- 0------ 0------|0---0-- 0------ 0------ 0------|
B|0-------0---0---0-------0------|0---0---0-------0-------0------|
G|1-------1---1---1-------1------|1---1---1-------1-------1------|
D|2-------2---2---2-------2------|2---2---2-------2-------2------|
A|2-------2---2---2-------2------|2---2---2-------2-------2------|
E|0-------0---0---0-------0------|0---0---0-------0-------0------|

e|4------ ------- ------- -------|------- ------- ------- -------|
B|5------------------------------|-------------------------------|
G|4------------------------------|-------------------------------|
D|2------------------------------|-------------------------------|
A|-------------------------------|-------------------------------|
E|-------------------------------|-------------------------------|



  D         
e|2------ 2---2-- 2---2-- 2---2--|2------ 2---2-- 2---2-- 2------|   
B|3-------3---3---3---3---3---3--|3-------3---3---3---3---3------|
G|2-------2---2---2---2---2---2--|2-------2---2---2---2---2------|
D|4-------4---4---4---4---4---4--|4-------4---4---4---4---4------|
A|5-------5---5---5---5---5---5--|5-------5---5---5---5---5------|
E|-------------------------------|-------------------------------|

e|2------ 2---2-- 2---2-- 2---2--|2---2-- 2---2-- 2---2-- 2------|
B|3-------3---3---3---3---3---3--|3---3---3---3---3---3---3------|
G|2-------2---2---2---2---2---2--|2---2---2---2---2---2---2------|
D|0-------0---0---0---0---0---0--|0---0---0---0---0---0---0------|
A|-------------------------------|-------------------------------|
E|-------------------------------|-------------------------------|

e|2------ ------- ------- -------|------- ------- ------- -------|
B|3------------------------------|--------3---------------2------|
G|2------------------------------|----2---------------2----------|
D|0------------------------------|4-----------4---2-----------2--|
A|-------------------------------|-------------------------------|
E|-------------------------------|-------------------------------|



  G                               D
e|3------ 3---3-- 3---3-- 3------|2---2-- 2------ 2---2-- 2------|
B|3-------3---3---3---3---3------|3---3---3-------3---3---3------|
G|0-------0---0---0---0---0------|2---2---2-------2---2---2------|
D|0-------0---0---0---0---0------|0---0---0-------0---0---0------|
A|2-------2---2---2---2---2------|-------------------------------|
E|3-------3---3---3---3---3------|-------------------------------|
              except  the     feeling         just grows     stronger          
e|3---3-- 3------ 3------ 3------|2------ 2---2-- 2---2-- 2------|
B|3---3---3-------3-------3------|3-------3---3---3---3---3------|
G|0---0---0-------0-------0------|2-------2---2---2---2---2------|
D|0---0---0-------0-------0------|0-------0---0---0---0---0------|
A|2---2---2-------2-------2------|-------------------------------|
E|3---3---3-------3-------3------|-------------------------------|

e|3------ ------- ------- -------|2------ ------- ------- -------|
B|0------------------------------|3------------------------------|
G|0------------------------------|2------------------------------|
D|0------------------------------|0------------------------------|
A|-------------------------------|-------------------------------|
E|-------------------------------|-------------------------------|



  A
e|5------ 5------ 5------ 5------|5------ 5------ 5---5-- 5------|
B|5-------5-------5-------5------|5-------5-------5---5---5------|
G|6-------6-------6-------6------|6-------6-------6---6---6------|
D|7-------7-------7-------7------|7-------7-------7---7---7------|
A|7-------7-------7-------7------|7-------7-------7---7---7------|
E|5-------5-------5-------5------|5-------5-------5---5---5------|
                      ev'ry   day.         
e|0------ 0---0-- 0------ 0------|0---0-- 0------ 0---0-- 0---0--|
B|2-------2---2---2-------2------|2---2---2-------2---2---2---2--|
G|2-------2---2---2-------2------|2---2---2-------2---2---2---2--|
D|2-------2---2---2-------2------|2---2---2-------2---2---2---2--|
A|0-------0---0---0-------0------|0---0---0-------0---0---0---0--|
E|-------------------------------|-------------------------------|

e|0------ ------- ------- -------|------- ------- ------- -------|
B|2---------------2--------------|-------------------------------|
G|2---------------2--------------|-------------------------------|
D|2-----------2---2--------------|------------2---0--------------|
A|0-----------0------------------|0---2---4-----------4---2---0--|
E|-------------------------------|-------------------------------|


                                                               

  E
e|4---4-- 4------ 4------ 4------|4---4-- 4---4-- 4------ 4------|
B|5---5---5-------5-------5------|5---5---5---5---5-------5------|
G|4---4---4-------4-------4------|4---4---4---4---4-------4------|
D|6---6---6-------6-------6------|6---6---6---6---6-------6------|
A|7---7---7-------7-------7------|7---7---7---7---7-------7------|
E|-------------------------------|-------------------------------|
                  Just one    thing           before  I       go        
e|0---0-- 0---0-- 0------ 0------|0---0-- 0------ 0------ 0------|
B|0---0---0---0---0-------0------|0---0---0-------0-------0------|
G|1---1---1---1---1-------1------|1---1---1-------1-------1------|
D|2---2---2---2---2-------2------|2---2---2-------2-------2------|
A|2---2---2---2---2-------2------|2---2---2-------2-------2------|
E|0---0---0---0---0-------0------|0---0---0-------0-------0------|

e|4------ ------- ------- -------|------- ------- ------- -------|
B|5------------------------------|-------------------------------|
G|4------------------------------|-------------------------------|
D|2------------------------------|-------------------------------|
A|-------------------------------|-------------------------------|
E|-------------------------------|-------------------------------|



  D
e|2---2-- 2---2-- 2---2-- 2------|2---2-- 2---2-- 2---2-- 2------|
B|3---3---3---3---3---3---3------|3---3---3---3---3---3---3------|
G|2---2---2---2---2---2---2------|2---2---2---2---2---2---2------|
D|4---4---4---4---4---4---4------|4---4---4---4---4---4---4------|
A|5---5---5---5---5---5---5------|5---5---5---5---5---5---5------|
E|-------------------------------|-------------------------------|

e|2------ 2---2-- 2---2-- 2---2--|2---2-- 2---2-- 2---2-- 2---2--|
B|3-------3---3---3---3---3---3--|3---3---3---3---3---3---3---3--|
G|2-------2---2---2---2---2---2--|2---2---2---2---2---2---2---2--|
D|0-------0---0---0---0---0---0--|0---0---0---0---0---0---0---0--|
A|-------------------------------|-------------------------------|
E|-------------------------------|-------------------------------|

e|2------ ------- ------- -------|------- ------- ------- -------|
B|3------------------------------|--------3---------------2------|
G|2------------------------------|----2---------------2----------|
D|0------------------------------|4-----------4---2-----------2--|
A|-------------------------------|-------------------------------|
E|-------------------------------|-------------------------------|



  G                               D
e|3---3-- 3---3-- 3------ 3------|2---2-- 2---2-- 2---2-- 2------|
B|3---3---3---3---3-------3------|3---3---3---3---3---3---3------|
G|0---0---0---0---0-------0------|2---2---2---2---2---2---2------|
D|0---0---0---0---0-------0------|0---0---0---0---0---0---0------|
A|2---2---2---2---2-------2------|-------------------------------|
E|3---3---3---3---3-------3------|-------------------------------|
                  take good   care            baby.        
e|3---3-- 3---3-- 3------ 3------|2---2-- 2---2-- 2---2-- 2------|
B|3---3---3---3---3-------3------|3---3---3---3---3---3---3------|
G|0---0---0---0---0-------0------|2---2---2---2---2---2---2------|
D|0---0---0---0---0-------0------|0---0---0---0---0---0---0------|
A|2---2---2---2---2-------2------|-------------------------------|
E|3---3---3---3---3-------3------|-------------------------------|

e|3------ ------- ------- -------|2------ ------- ------- -------|
B|0------------------------------|3------------------------------|
G|0------------------------------|2------------------------------|
D|0------------------------------|0------------------------------|
A|-------------------------------|-------------------------------|
E|-------------------------------|-------------------------------|



  A
e|5------ 5------ 5---5-- 5------|5------ 5---5-- 5---5-- 5------|
B|5-------5-------5---5---5------|5-------5---5---5---5---5------|
G|6-------6-------6---6---6------|6-------6---6---6---6---6------|
D|7-------7-------7---7---7------|7-------7---7---7---7---7------|
A|7-------7-------7---7---7------|7-------7---7---7---7---7------|
E|5-------5-------5---5---5------|5-------5---5---5---5---5------|
  Let me      know   
e|0------ 0---0-- 0---0-- 0---0--|0---0-- 0---0-- 0---0-- 0------|
B|2-------2---2---2---2---2---2--|2---2---2---2---2---2---2------|
G|2-------2---2---2---2---2---2--|2---2---2---2---2---2---2------|
D|2-------2---2---2---2---2---2--|2---2---2---2---2---2---2------|
A|0-------0---0---0---0---0---0--|0---0---0---0---0---0---0------|
E|-------------------------------|-------------------------------|

e|0------ ------- ------- -------|------- ------- ------- -------|
B|2---------------2--------------|-------------------------------|
G|2---------------2--------------|-------------------------------|
D|2-----------2---2--------------|------------2---0--------------|
A|0-----------0------------------|0---2---4-----------4---2---0--|
E|-------------------------------|-------------------------------|



  E
e|4------ 4---4-- 4---4-- 4---4--|4------ 4---4-- 4---4-- 4------|
B|5-------5---5---5---5---5---5--|5-------5---5---5---5---5------|
G|4-------4---4---4---4---4---4--|4-------4---4---4---4---4------|
D|6-------6---6---6---6---6---6--|6-------6---6---6---6---6------|
A|7-------7---7---7---7---7---7--|7-------7---7---7---7---7------|
E|-------------------------------|-------------------------------|
  let it      grow 
e|0---0-- 0---0-- 0---0-- 0------|0---0-- 0------ 0---0-- 0------|
B|0---0---0---0---0---0---0------|0---0---0-------0---0---0------|
G|1---1---1---1---1---1---1------|1---1---1-------1---1---1------|
D|2---2---2---2---2---2---2------|2---2---2-------2---2---2------|
A|2---2---2---2---2---2---2------|2---2---2-------2---2---2------|
E|0---0---0---0---0---0---0------|0---0---0-------0---0---0------|

e|4------ ------- ------- -------|------- ------- ------- -------|
B|5------------------------------|------------0------------------|
G|4------------------------------|--------1-------2---1----------|
D|2------------------------------|2---4-------------------4---2--|
A|-------------------------------|-------------------------------|
E|-------------------------------|-------------------------------|



  Bm                              Bm7
e|2---2-- 2---2-- 2------ 2------|2------ 2---2-- 2---2-- 2------|
B|3---3---3---3---3-------3------|3-------3---3---3---3---3------|
G|4---4---4---4---4-------4------|2-------2---2---2---2---2------|
D|4---4---4---4---4-------4------|4-------4---4---4---4---4------|
A|2---2---2---2---2-------2------|2-------2---2---2---2---2------|
E|-------------------------------|-------------------------------|
              the special     love            you have for    me.          
e|2---2-- 2---2-- 2------ 2------|2---2-- 2------ 2---2-- 2------|
B|3---3---3---3---3-------3------|3---3---3-------3---3---3------|
G|4---4---4---4---4-------4------|2---2---2-------2---2---2------|
D|4---4---4---4---4-------4------|4---4---4-------4---4---4------|
A|2---2---2---2---2-------2------|5---5---5-------5---5---5------|
E|-------------------------------|-------------------------------|

e|2------ ------- ------- -------|2------ ------- ------- -------|
B|3------------------------------|3------------------------------|
G|4------------------------------|2------------------------------|
D|4------------------------------|4------------------------------|
A|2------------------------------|2------------------------------|
E|-------------------------------|-------------------------------|





e|2---2-- 2------ 2---2-- 2------|2------ 2------ 2------ -------|
B|3---3---3-------3---3---3------|3-------3-------3--------------|
G|2---2---2-------2---2---2------|2-------2-------2--------------|
D|4---4---4-------4---4---4------|4-------4-------4--------------|
A|5---5---5-------5---5---5------|5-------5-------5--------------|
E|-------------------------------|-------------------------------|
                                              my  Dixie       dear
e|2---2-- 2---2-- 2---2-- 2------|2------ 2------ 2------ 2------|
B|3---3---3---3---3---3---3------|3-------3-------3-------3------|
G|2---2---2---2---2---2---2------|2-------2-------2-------2------|
D|0---0---0---0---0---0---0------|0-------0-------0-------0------|
A|-------------------------------|-------------------------------|
E|-------------------------------|-------------------------------|

e|------- ------- ------- ----2--|------- ----5-- ----5-- -------|
B|------------3------------------|----3-------3-------3----------|
G|--------2-----------2----------|--------2----------------------|
D|----4-------------------4------|-------------------------------|
A|5------------------------------|-------------------------------|
E|-------------------------------|-------------------------------|




  A
e|0---0-- 0------ 0---0-- 0------|0---0-- 0---0-- 0---0-- 0------|
B|2---2---2-------2---2---2------|2---2---2---2---2---2---2------|
G|2---2---2-------2---2---2------|2---2---2---2---2---2---2------|
D|2---2---2-------2---2---2------|2---2---2---2---2---2---2------|
A|0---0---0-------0---0---0------|0---0---0---0---0---0---0------|
E|-------------------------------|-------------------------------|

e|------- ------- ------- -------|------- ------- ------- -------|
B|------------2------------------|------------2------------------|
G|--------2-----------2-------2--|--------2-----------2---2------|
D|----2-------------------2------|----2--------------------------|
A|0------------------------------|-------------------------------|
E|-------------------------------|-------------------------------|




  Bm                                              Bm7
e|2---2-- 2------ 2---2-- 2------|2---2-- 2------ 2---2-- 2------|
B|3---3---3-------3---3---3------|3---3---3-------3---3---3------|
G|4---4---4-------4---4---4------|4---4---4-------2---2---2------|
D|4---4---4-------4---4---4------|4---4---4-------4---4---4------|
A|2---2---2-------2---2---2------|2---2---2-------2---2---2------|
E|-------------------------------|-------------------------------|

e|------- ------- ------- -------|------- ------- ------- -------|
B|------------3------------------|------------------------3------|
G|--------4-----------4-------4--|--------4-------------------4--|
D|----4-------------------4------|----4-------4-------4----------|
A|2------------------------------|2---------------0--------------|
E|-------------------------------|-------------------------------|




  G                               D
e|3---3-- 3------ 3---3-- 3------|2------ 2---2-- 2---2-- 2------|
B|3---3---3-------3---3---3------|3-------3---3---3---3---3------|
G|0---0---0-------0---0---0------|2-------2---2---2---2---2------|
D|0---0---0-------0---0---0------|0-------0---0---0---0---0------|
A|2---2---2-------2---2---2------|-------------------------------|
E|3---3---3-------3---3---3------|-------------------------------|


e|------- ------- ------- -------|------- ------- ------- -------|
B|-------------------------------|------------7------------------|
G|------------4------------------|--------7-----------7-------7--|
D|--------5-----------5-------5--|----7-------------------7------|
A|----5-------------------5------|5------------------------------|
E|3------------------------------|-------------------------------|

e|------- ------- ------- -------|------- ------- ------- -------|
B|-------------------------------|------------------------10-----|
G|-------------------------------|------------7/9-----9----------|
D|------------------------7/9----|7------------------------------|
A|------------5/7-----5----------|-------------------------------|
E|3------------------------------|-------------------------------|



 (.
  A
e|5------ ------- ------- -------|------- ------- ------- -------|
B|5------------------------------|-------------------------------|
G|6------------------------------|-------------------------------|
D|7------------------------------|-------------------------------|
A|7------------------------------|-------------------------------|
E|5------------------------------|-------------------------------|

e|------- ------- ------- -------|------- ------- ------- -------|
B|5------------------------------|-------------------------------|
G|6------------------------------|-------------------------------|
D|7------------------------------|-------------------------------|
A|-------------------------------|-------------------------------|
E|-------------------------------|-------------------------------|

e|------- ------- ------- -------|------- ------- ------- -------|
B|12B14--------------------------|-------------------------------|
G|-------------------------------|-------------------------------|
D|-------------------------------|-------------------------------|
A|-------------------------------|-------------------------------|
E|-------------------------------|-------------------------------|







        B  Bend
        R  Release
        /  Slide up
        \  Slide down
        H  Hammer-on
        P  Pull-off
        ~  Vibrato
        +  Harmonic
        x  Mute note
        .  Play note like a dot in standard notation
        ^  Ties two notes together
        (. Pause
Comments