Bad Religion - You Chords & Tabs

 

You Chords & Tabs

Bad Religion Chords & Tabs

Version: 2 Type: Tab 0 ratings
1 star 2 stars 3 stars 4 stars 5 stars
comments

You Tab

*********************************
 Bad Religion                   *
 You                            *
 No Control                     *
 tabbed by David olivo          * *********************************
 This song is really easy but its a little
quick. Begins with a intro something like this
 Repite(3x)
------------------------------------
------------------------------------
------------------------------------
--7--7--7--7--8---------------------
--7--7--7--7--8---------------------
--5--5--5--5--6---------------------

verse
there´s a place where everyone...
[ Tab from: http://www.guitartabs.cc/tabs/b/bad_religion/you_tab_ver_2.html ]
---------------------------------
---------------------------------
-------------10------5-----------
----7--------10------5------5----
----7--------8-------3------5----
----5-----------------------3----

Cause theres no time for fussing...


-------------------------------
-------------------------------
---10--9---10--9/10/12/10------
---10--9---10--9/10/12/10------
---8---7---8---7/8-/10/8-------
-------------------------------

and you

----------------------
----------------------
----------------------
-7--3--5--------------
-7--3--5--------------
-5--1--3--------------

painted my entired world

----------------
----------------
----10-7--9-----
-7--10-7--9-----
-7--8--5--7-----
-5--------------

but i...( its the same that but you...)

and i wont forget it
(intro)



Punk rules!
David Olivo



Comments