Bad Religion - You Are The Government Chords & Tabs

 

You Are The Government Chords & Tabs

Bad Religion Chords & Tabs

Version: 1 Type: Tab 0 ratings
1 star 2 stars 3 stars 4 stars 5 stars
comments

You Are The Government Tab

------------------------------------------------------------------------------- 
YOU ARE THE GOVERNMENT - Bad Religion 
------------------------------------------------------------------------------- 

By:Catch22sXe@aol.com 

Intro/Chorus 
e|--------------------------------------------| 
B|--------------------------------------------| 
G|-------------6---8---------------6---5------| 
D|-3---6---8---6---8---3---6---8---6---5------| 
A|-3---6---8---4---6---3---6---8---4---3------| 
E|-1---4---6-----------1---4---6--------------| 
[ Tab from: http://www.guitartabs.cc/tabs/b/bad_religion/you_are_the_government_tab.html ]
Verse Play each note 6 times play twice 
e|------------------------------------------------| |--------------| 
B|------------------------------------------------| |--------------| 
G|-6-------8--11---6-------8-------6-------8--11--| |--6---8--11---| 
D|-6---6---8--11---6---6---8---8---6---6---8--11--| |--6---8--11---| 
A|-4---6---6---9---4---6---6---8---4---6---6---9--| |--4---6---9---| 
E|-----4---------------4-------6-------4----------| |--------------| 

"You are..." part 
e|------||-----------------------------------------||-----------------| 
B|------||-----------------------------------------||-----------------| 
G|-6--8-||-11--11--------11-11-------8---8---8---8-||-11---6-------8--| 
D|-6--8-||-11--11---12---11-11---6---8---8---8---8-||-11---6---6---8--| 
A|-4--6-||--9---9---12----9--9---6---6---6---6---6-||--9---4---6---6--| 
E|------||----------10-----------4-----------------||----------4------| 

==============================================================================
Comments