Bad Religion - Were Only Gonna Die From Our Own Arrogance Chords & Tabs

 

Were Only Gonna Die From Our Own Arrogance Chords & Tabs

Bad Religion Chords & Tabs

Version: 1 Type: Tab 0 ratings
1 star 2 stars 3 stars 4 stars 5 stars
comments

Were Only Gonna Die From Our Own Arrogance Tab

BAD RELIGION                                   |
"We're only gonna die(from our own arrogance)" |
From the LP-How Could Hell be any Worse?       |
Epitaph 				       |
Tabbed By Daniel Miller                        |
_______________________________________________|



A good song. Play fast with lots of distortion.

Intro, also played throughout the song.
e--------------------------------------------------------|
B--------------------------------------------------------|
G-----------------------------5--------------------------|
D--5/7-7-7--5/7-7-7--5/7-7-7--5-5------------------------|
A--5/7-7-7--5/7-7-7--5/7-7-7--3-5------------------------|
E--3/5-5-5--3/5-5-5--3/5-5-5----3------------------------|

Repeat that 4 times.
Then play the Verse.

e--------------------------------------------------------|
B--------------------------------------------------------|
G------------------7-7-7-7-------------------------------|
D--7-7-7-7-5-5-5-5-7-7-7-7-7-7-7-7-----------------------|
A--7-7-7-7-5-5-5-5-5-5-5-5-7-7-7-7-----------------------|
E--5-5-5-5-3-3-3-3---------5-5-5-5-----------------------|

Play the verse 6 times, then you play the Intro again 4 times.

e--------------------------------------------------------|
B--------------------------------------------------------|
G-----------------------------5--------------------------|
D--5/7-7-7--5/7-7-7--5/7-7-7--5-5------------------------|
A--5/7-7-7--5/7-7-7--5/7-7-7--3-5------------------------|
E--3/5-5-5--3/5-5-5--3/5-5-5----3------------------------|

Then play this slowly and let the notes ring.
e--------------------------------------------------------|
B--------------------------------------------------------|
G------------------7~------------------------------------|
D--7~------5~------7~------7~----------------------------|
A--7~------5~------5~------7~----------------------------|
E--5~------3~--------------5~----------------------------|

Now you play this slowly and its all palm muted.
[ Tab from: http://www.guitartabs.cc/tabs/b/bad_religion/were_only_gonna_die_from_our_own_arrogance_tab.html ]
e--------------------------------------------------
B--------------------------------------------------
G----------------------------------7-7-7-7-7-7-7-7-
D--7-7-7-7-7-7-7-7-5-5-5-5-5-5-5-5-7-7-7-7-7-7-7-7-
A--7-7-7-7-7-7-7-7-5-5-5-5-5-5-5-5-5-5-5-5-5-5-5-5-
E--5-5-5-5-5-5-5-5-3-3-3-3-3-3-3-3-----------------

e------------------|
B------------------|
G------------------|
D--7-7-7-7-7-7-7-7-|
A--7-7-7-7-7-7-7-7-|
E--5-5-5-5-5-5-5-5-|

But after a while it starts speeding up. Then after playing it four
times you let go of the palm mute and play it another two times.


After that play this fast again four more times.

e--------------------------------------------------------|
B--------------------------------------------------------|
G-----------------------------5--------------------------|
D--5/7-7-7--5/7-7-7--5/7-7-7--5-5------------------------|
A--5/7-7-7--5/7-7-7--5/7-7-7--3-5------------------------|
E--3/5-5-5--3/5-5-5--3/5-5-5----3------------------------|


Then play this four times.
e--------------------------------------------------------|
B--------------------------------------------------------|
G------------------7-7-7-7-------------------------------|
D--7-7-7-7-5-5-5-5-7-7-7-7-7-7-7-7-----------------------| 
A--7-7-7-7-5-5-5-5-5-5-5-5-7-7-7-7-----------------------|
E--5-5-5-5-3-3-3-3---------5-5-5-5-----------------------|


Then play this 6 times again for the outro.

e--------------------------------------------------------|
B--------------------------------------------------------|
G-----------------------------5--------------------------|
D--5/7-7-7--5/7-7-7--5/7-7-7--5-5------------------------|
A--5/7-7-7--5/7-7-7--5/7-7-7--3-5------------------------|
E--3/5-5-5--3/5-5-5--3/5-5-5----3------------------------|

On the last time through the outro end on this note.

e--------------------------------------------------------|
B--------------------------------------------------------|
G--------------------------------------------------------|
D--7-----------------------------------------------------|
A--7-----------------------------------------------------|
E--5-----------------------------------------------------|
Comments