Bad Religion - The Handshake Chords & Tabs

 

The Handshake Chords & Tabs

Bad Religion Chords & Tabs

Version: 1 Type: Tab 0 ratings
1 star 2 stars 3 stars 4 stars 5 stars
comments

The Handshake Tab

   
------------------------------------------------------------------------- 
THE HANDSHAKE - Bad Religion 
------------------------------------------------------------------------- 

By Tony Carl, gt7659c@prism.gatech.edu. 

Rhythm A x 7 --> then play a B to F# Rhythm A1 
e:|-6-x-6-x-6-x-6-6-6-6-4-4-4-| |--------| 
b:|-6-x-6-x-6-x-6-6-6-6-4-4-4-| |--------| 
g:|-6-x-6-x-6-x-6-6-6-6-4-4-4-| |--4-----| 
d:|-6-x-6-x-6-x-6-6-6-6-4-4-4-| |--4--4--| 
a:|-4-x-4-x-4-x-4-4-4-4-4-4-4-| |--2--4--| 
e:|---------------------------| |-----2--| 
C# B F# 
Rhythm B (figure out rhythm yo own damn self!) 
[ Tab from: http://www.guitartabs.cc/tabs/b/bad_religion/the_handshake_tab.html ]
This is the way of the Modern World... 
e:|----------------------------| 
b:|----------------------------| 
g:|--------(9)-4-6-6-----4---4-| 
d:|-7---2--(9)-4-6-6-7-2-4-7-4-| 
a:|-7---2--(7)-2-4-6-7-2-2-7-2-| 
e:|-5---0--(0)-----4-5-0---5---| 
A E or (E) B C#G#A E B A B 

Play Rhythm A --> A1 

Play Rhythm B 

Play Rhythm A --> A1 

Rhythm C (Stroke and Arpeggiate these chords) x 2 

Now I believe in Unity... 
e:|-5-5-----0-0-----2-2-----4-4-----| 
b:|-5---5---0---0---2---2---4---4---| 
g:|-6-----6-1-----1-4-----4-6-----6-| 
d:|-7-------2-------4-------6-------| 
a:|-7-------2-------2-------4-------| 
e:|-5-------0-----------------------| 
A E B C# 

Rhythm C1 

But I'm not gonna lie... 
e:|-5-5-----0-0--------| 
b:|-5---5---0---0------| 
g:|-6-----6-1-----1-4--| 
d:|-7-------2-------4--| 
a:|-7-------2-------2--| 
e:|-5-------0----------| 
A E B (palm muted) 

Solo 
Play Rythm A --> A1 

Play Rhythm B and C 
(just listen, you'll hear the difference, ends with Rhythm B ending) 

Ending Play Rhythm A 

-------------------------------------------------------------------------
Comments