Bad Religion - The Empire Strikes First Chords & Tabs

 

The Empire Strikes First Chords & Tabs

Bad Religion Chords & Tabs

Version: 1 Type: Tab 0 ratings
1 star 2 stars 3 stars 4 stars 5 stars
comments

The Empire Strikes First Tab

   
Bad Religion
"The Empire Strikes First"
The Empire Strikes First
Tabbed By:Ronny
XFragileTimeX@yahoo.com



Intro:
A|-0-0-0....
[ Tab from: http://www.guitartabs.cc/tabs/b/bad_religion/the_empire_strikes_first_tab.html ]
Intro/Verse (I only give the cords not the amount of strumming):
( A D C G C )
e|-------------------|
B|-------------------|
G|------7x--5-----5--|
D|--7x--7x--5--5--5--|
A|--7x--5x--3--5--3--|
E|--5x---------3-----|

chorus:
A C F D E


Bridge (2x, before solo):
e|---------------------------------|
B|---------------------------------|
G|---------------------------------|
D|---------------------------------|
A|--0-0--3-0-3-----3-0-3------3-5--|
E|-------------3-3-------2-2--1-3--|

Solo:
uhhh?

Bridge (after solo):
A5 (pm) 

Comments