Bad Religion - Strange Denial Chords & Tabs

 

Strange Denial Chords & Tabs

Bad Religion Chords & Tabs

Version: 2 Type: Tab 0 ratings
1 star 2 stars 3 stars 4 stars 5 stars
comments

Strange Denial Tab

------------------------------------------------------------------------------- 
STRANGE DENIAL - Bad Religion 
------------------------------------------------------------------------------- 

By: Terry (BadReligion_Believer5@hotmail.com) 

Intro 
e|---------------------------------------------------------------------| 
B|---------------------------------------------------------------------| 
G|---------------------------------------------------------------------| 
D|--4-4-4-4--2--0----------4-4-4-4--2--0----------4-4-4-4--2--0--------| 
A|-----------------4--0-------------------4--0-------------------4--0--| 
E|---------------------------------------------------------------------| 

e|----------------------------------------------| 
B|----------------------------------------------| 
G|----------------------------------------------| 
D|--4-4-4-4--2--0----------4-4-4-4--2--0--------| 
A|-----------------4--0-------------------4--0--| 
E|----------------------------------------------| 

e|------------------------------------------| 
B|------------------------------------------| 
G|------------------------------------------| 
D|----4-4-4-4-4-4-4-4-----------------------| 
A|--4\2-2-2-2-2-2-2-2--4h5p4h5p4h5p4h5p4h5--| 
E|------------------------------------------| 

Verse 
e|-----------------------------------------| 
B|-----------------------------------------| 
G|-----------------------------------------| 
D|--4-4-4-4--------------------7-7--6/7\6--| 
A|--2-2-2-2--4-4-4-4--5-5-5-5--5-5--4/5\4--| 
E|-----------2-2-2-2--3-3-3-3--------------| 
...................p.m................... 

e|-----------------------------------------| 
B|-----------------------------------------| 
G|-----------------------------------------| 
D|--4-4-4-4--------------------7-7--6/7\6--| 
A|--2-2-2-2--4-4-4-4--5-5-5-5--5-5--4/5\4--| 
E|-----------2-2-2-2--3-3-3-3--------------| 
[ Tab from: http://www.guitartabs.cc/tabs/b/bad_religion/strange_denial_tab_ver_2.html ]
Chorus 
e|-----------------------------------------------------------| 
B|-----------------------------------------------------------| 
G|--7--6------------------------7--6-------------------------| 
D|--------9--7----------7-7-----------9--7-------------------| 
A|--------------9--5-5--5-5--7--------------9--5-5-5-5--7-7--| 
E|-----------------3-3-------5-----------------3-3-3-3--5-5--| 

e|--------------------------------------------------------------------------------| 
B|--------------------------------------------------------------------------------| 
G|--7--6------------------------7--6----------------------------------------------| 
D|--------9--7----------7-7-----------9--7----------------------7-7-7-7-----------| 
A|--------------9--5-5--5-5--7--------------9--5-5-5-5-5-5-5-5--5-5-5-5--7-7-7-7--| 
E|-----------------3-3-------5-----------------3-3-3-3-3-3-3-3-----------5-5-5-5--| 

Solo 
e|--7----------------------7-------------------------| 
B|-----7-------7--7-----------7-------7--7-----------| 
G|--------7--7h9--7--7--6--------7--7h9--7--7-----9--| 
D|-------------------9--7-------------------9/11-----| 
A|---------------------------------------------------| 
E|---------------------------------------------------| 

e|--7----------------10---9--9------9/7-7--9--10-10^12--10--9-------------| 
B|-----7-------7--7--10--10-----10-----------------------------10/12~~~~--| 
G|--------7--7h9--7-------------------------------------------------------| 
D|------------------------------------------------------------------------| 
A|------------------------------------------------------------------------| 
E|------------------------------------------------------------------------| 

e|----| 
B|----| 
G|----| Brian's Improv Solo 
D|----| Its really just along the same lines, 
A|----| Octaved up the fretboard 
E|----| 

Outro 
e|--7----------------10---9--9------9/7-7--9--10-10^12--10--9-------------| 
B|-----7-------7--7--10--10-----10-----------------------------10/12~~~~--| 
G|--------7--7h9--7-------------------------------------------------------| 
D|------------------------------------------------------------------------| 
A|------------------------------------------------------------------------| 
E|------------------------------------------------------------------------| 

===============================================================================
Comments