Bad Religion - Sorrow Chords & Tabs

 

Sorrow Chords & Tabs

Bad Religion Chords & Tabs

Version: 2 Type: Tab 0 ratings
1 star 2 stars 3 stars 4 stars 5 stars
comments

Sorrow Tab

-------------------------------------------------------------------------------
			     Sorrow - Bad Religion
-------------------------------------------------------------------------------


Tabbed by - Michael Kulachkosky (Fire_Inside@hotmail.com)


TAB

I'm not an expert, but here goes...


INTRO

Strum each four times (downward strokes)
E----------------------------------------------------
B----------------------------------------------------
G----5--7--------------------------------------------
D-2--5--7--5-----------------------------------------
A-2--3--5--5-----------------------------------------
E-0--------3-----------------------------------------

"Father can you hear me?"
E----------------------------------------------------
B----------------------------------------------------
G---------------------5--9--7------------------------
D-5-------------------5--9--7-->---------------------
A-5->-----------------3--7--5------------------------
E-3--------------------------------------------------

"How have I let you down?"
E----------------------------------------------------
B----------------------------------------------------
G--7-------------------------------------------------
D--7->-----------------------------------------------
A--5-------------------------------------------------
E----------------------------------------------------

"I cursed the day.."
E----------------------------------------------------
B----------------------------------------------------
G-----5--7--9----------------------------------------
D--5--5--7--9->--------------------------------------
A--5--3--5--7----------------------------------------
E--3-------------------------------------------------

"And all the sorrow.."
E----------------------------------------------------
B----------------------------------------------------
G--9--5--7-------------------------------------------
D--9--5--7--5-----------------5-5--------------------
A--7--3--5--5-----------------5-5--------------------
E-----------3-----------------3-2--------------------
[ Tab from: http://www.guitartabs.cc/tabs/b/bad_religion/sorrow_tab_ver_2.html ]
VERSE
From here, just repeat the intro stuff like this
E--------------------------------------------------------
B--------------------------------------------------------
G---5-7-----------5-9-7---------5-7-9-------9-5-7--------
D-2-5-7-5-------5-5-9-7->-----5-5-7-9->-----9-5-7-5------
A-2-3-5-5->-----5-3-7-5-------5-3-5-7-------7-3-5-5------
E-0-----3-------3-------------3-------------------3------

E--------------------------------------------------------
B--------------------------------------------------------
G---5-7-----------5-9-7---------5-7-9-------9-5-7--------
D-2-5-7-5-------5-5-9-7->-----5-5-7-9->-----9-5-7--------
A-2-3-5-5->-----5-3-7-5-------5-3-5-7-------7-3-5--------
E-0-----3-------3-------------3-------------------3-2-3--

CHORUS (note: just strum the D chord once and then go to the F# bended)
E---------------------------------------------------------
B---------------------------------------------------------
G----5-----7-------5-----7-------5--------7---------------
D-2--5--5--7----2--5--5--7----2--5--5--2--7->-----5---\---
A-2--3--5--5----2--3--5--5----2--3--5--2--5-------5->-\(with pick slide)
E-0-----3---2^--0-----3---2^--0-----3--0----------3---\---

Play Verse Again

Play Chorus Again

Play solo....don't know it..starts with a bend on 
D:--12--   I think


I guess there is more than one guitar, but the only one probably just plays the
open chords, so go ahead and do that if you've got more than one guitarist
playing.
That should be it. Any questions/comments/corrections,
email Fire_Inside@hotmail.com
This is my first tab, so it may not be perfect. Anyway, hope it helps you.


LYRICS

Father can you hear me?
How have I let you down?
I curse the day that I was born
and all the sorrow in this world

Let me take you to the hurting ground
Where all good men are trambled down
Just to settle a bet that could not be won
Between a prideful father and his son

Will you guild me now, cause I can't see
A reason for this suffering and this long misery
What if every living soul could be upright and strong?
Well then I do imagine..

There will be sorrow
yeah There will be sorrow
and There will be sorrow no more

When all soldier lay their weapons down
Or when all kings and queen relinguish their crowns
Or when the only true messiah rescues us from ourselves
It's easy to imagine..

There will be sorrow
yeah There will be sorrow
and There will be sorrow no more
Comments