Bad Religion - Slumber Chords & Tabs

 

Slumber Chords & Tabs

Bad Religion Chords & Tabs

Version: 3 Type: Bass Tab 0 ratings
1 star 2 stars 3 stars 4 stars 5 stars
comments

Slumber Bass Tab

   
Tabbed By : Simpleboy
e-mail: the_simpleboy@hotmail.com

The other tabs is good groundwork but its actually quite far off,
I realised that when i played it with head phones.

Tuning: E A D G

Intro 
Played till Riff one

G--------------------------------
D--2/3---------0-2/3------------- 
A------333-2-3-------33-222-0---- 
E-------------------------------- 

Riff One

A-20-----

Play intro

Chorus

G-----------------------------------------
D-----------------------------------------
A-----------------------------------------
E-1-1-3-3-5-5-5-5-5-4-3-2-----------------
[ Tab from: http://www.guitartabs.cc/tabs/b/bad_religion/slumber_btab_ver_3.html ]
G-----------------------------------------
D-----------------------------------------
A-----------------------------------------
E-1-1-3-3-5-5-5-5-5-4-3-2-----------------

G-----------------------------------------
D-----------------------------------------
A-------------------3-3-3-3---------------
E-1-1-3-3-5-5-5-5-5-----------------------

G-----------------------------------------
D-----------------------------------------
A-----------------------------------------
E-1-1-3-3-5-5-5-5-5-4-3-2-----------------

Solo 

G--------------------------------
D--3-2---------0-3-2------------- 
A------333-2-3-------33-222-0---- 
E-------------------------------- 


they are all the riffs but you can figure out the order after the first chorus
Comments