Bad Religion - Sinister Rouge Chords & Tabs

 

Sinister Rouge Chords & Tabs

Bad Religion Chords & Tabs

Version: 4 Type: Tab 0 ratings
1 star 2 stars 3 stars 4 stars 5 stars
comments

Sinister Rouge Tab

   
Sinister Rouge, in all it's glory. Standard tuning.



Intro/solo rhythm-backing. 

I've tried to establish some sort of strum-rhythm thing here, but if you can't pick up
on it, just do it your way. It's not a difficult rhythm to figure out.

e-----------------------------------------------------|
B-----------------------------------------------------|
G-7-7--7-7-7--7---------------------------------------|
D-7-7--7-7-5--7--7-7--7-7-7--7--8-8--8-8-8-8--3-3-5-5-|
A-5-5--5-5-5--5--7-7--7-7-7--7--8-8--8-8-8-8--3-3-5-5-|
E----------------5-5--5-5-5--5--6-6--6-6-6-6--1-1-3-3-|

Pre-Verse

e---------------------------------------------|
B---------------------------------------------|
G-7-7-7-7-7-7-8-7-7-7-7-7-7-8-7-7-7-7-7-7-8-7-|
D-7-7-7-7-7-7-8-7-7-7-7-7-7-8-7-7-7-7-7-7-8-7-|
A-5-5-5-5-5-5-6-5-5-5-5-5-5-6-5-5-5-5-5-5-6-5-|
E---------------------------------------------|

Verse
[ Tab from: http://www.guitartabs.cc/tabs/b/bad_religion/sinister_rouge_tab_ver_4.html ]
e-----------------------------|
B-----------------------------|
G-7-----------------10------5-|
D-7-x8--7-----8-----10-10-5-5-|
A-5-----7-x8--8-x8--8--10-5-3-|
E-------5-----6--------8--3---|

Chorus

e------------------------------------|
B------------------------------------|
G-7-----9-----10-------------10-9-10-|
D-7-x8--9-x4--10-x4--7-8-----10-9-10-|
A-5-----7-----8------7-8-x8--8--7-8--|
E--------------------5-6-------------|

Solo - because this is played at such high speed, and because it is probably Brett doing
it on one take, it is hard to tab, so this is a loose representation of it. However, I
hope it it still fairly accurate.

e------------------------------------------------------------------------------|
B----------8b10b8-6-5-6---------8b10b8-6-8-6-5-6---6-8-6-5-6-5---5-6-5---------|
G-/7--7-6---------------7-6-7--------------------7-------------7-------7-5-7---|
D------------------------------------------------------------------------------|
A-----------------------------5----------------------------------------------5-|
E------------------------------------------------------------------------------|

I haven't tabbed out the outro solo, as I'm guessing it's sheer improv. To play the
rhythm, just play the verse til the end!

---------------------------------------

Enjoy!
Comments