Bad Religion - Silent Nightlive Chords & Tabs

 

Silent Nightlive Chords & Tabs

Bad Religion Chords & Tabs

Version: 1 Type: Tab 0 ratings
1 star 2 stars 3 stars 4 stars 5 stars
comments

Silent Nightlive Tab

Band:Bad religion
Song:Silent night(live)
Tabbed by:Alex
E-mail:Buttmuncher567@yahoo.com

I got this song from a friend.I think this is from a christmas show
they did in 1992. This song is live and difficult to hear so i doubt
it is 100% correct but it will do. enjoy
Intro
E|-------------------------------------------------------------|
B|-------------------------------------------------------------|
G|----------------10----------------10-----10----10----10----10|
D|--101010101010--10--101010101010--10--10-10-10-10-10-10-10-10|
A|--101010101010---8--101010101010---8--10--8-10--8-10--8-10--8|
E|---8-8-8-8-8-8-------8-8-8-8-8-8------8------8-----8-----8---|

e|-------------------------------------------|
B|-------------------------------------------|
G|-------------------------------------------|
D|-10-10-10-10-10-10-10-10--8-8-8-8-8-8-8-8--|x2
A|-10-10-10-10-10-10-10-10--8-8-8-8-8-8-8-8--|
E|--8--8--8--8--8--8--8--8--6-6-6-6-6-6-6-6--|
At the end of the second time there is a pickslide
[ Tab from: http://www.guitartabs.cc/tabs/b/bad_religion/silent_nightlive_tab.html ]
Verse
e|-------------------------------------------|
B|-------------------------------------------|
G|-------------------------------------------|
D|-10-10-10-10-10-10-10-10--8-8-8-8-8-8-8-8--|x2
A|-10-10-10-10-10-10-10-10--8-8-8-8-8-8-8-8--|
E|--8--8--8--8--8--8--8--8--6-6-6-6-6-6-6-6--|
          Silent              Night
          Holy                Night
e|---------------------------------------------------|
B|---------------------------------------------------|
G|--------------------------10-10-10-10-10-10-10-10--|
D|-10-10-10-10-10-10-10-10--10-10-10-10-10-10-10-10--|x2
A|-10-10-10-10-10-10-10-10---8--8--8--8--8--8--8--8--|
E|--8--8--8--8--8--8--8--8---------------------------|
           All          is       Calm
           All          is       Bright

e|--------------------------------------------------------------------|
B|--------------------------------------------------------------------|
G|-------------------------------------------10-10-10-10-10-10-10-10--|
D|-10-10-10-10-10-10-10-10--8-8-8-8-8-8-8-8--10-10-10-10-10-10-10-10--|
A|-10-10-10-10-10-10-10-10--8-8-8-8-8-8-8-8---8--8--8--8--8--8--8--8--|
E|--8--8--8--8--8--8--8--8--6-6-6-6-6-6-6-6---------------------------|

  --------------------------|
  --------------------------|
  --------------------------|
  -10-10-10-10-10-10-10-10--|x4
  -10-10-10-10-10-10-10-10--|
  --8--8--8--8--8--8--8--8--|

Bridge
E|-------------------------------------------------------------|
B|-------------------------------------------------------------|
G|----------------10------------------10------------------10---|
D|--101010101010--10-8--101010101010--10-8--101010101010--10-8-|
A|--101010101010---8-8--101010101010---8-8--101010101010---8-8-|
E|---8-8-8-8-8-8-----6---8-8-8-8-8-8-----6---8-8-8-8-8-8-----6-|

  -------------------------------------------|
  -------------------------------------------|
  -------------------------------------------|
  -10-10-10-10-10-10-10-10--8-8-8-8-8-8-8-8--|
  -10-10-10-10-10-10-10-10--8-8-8-8-8-8-8-8--|
  --8--8--8--8--8--8--8--8--6-6-6-6-6-6-6-6--|
  I am not sure about this part but it sounds alright to me

  Any corrections,comments or questions e-mail my address is above
Comments