Bad Religion - Punk Rock Song Chords & Tabs

 

Punk Rock Song Chords & Tabs

Bad Religion Chords & Tabs

Version: 4 Type: Tab 0 ratings
1 star 2 stars 3 stars 4 stars 5 stars
comments

Punk Rock Song Tab

   
TAB BY: ALEXANDRE BÉLANGER 
Intro 
e|---------------------------------| 
B|---------------------------------| 
G|-6-6-6-6-9-9-9-9-----------------|2x 
D|-6-6-6-6-9-9-9-9-9-9-9-9-6-6-6-6-| 
A|-4-4-4-4-7-7-7-7-9-9-9-9-6-6-6-6-| 
E|-----------------7-7-7-7-4-4-4-4-| 

Verse 
e|-------------------------------------| 
B|-------------------------------------| 
G|-6-6-6-6-9-9-9-9---------11-11-11-11-| 
D|-6-6-6-6-9-9-9-9-9-9-9-9-11-11-11-11-| 
A|-4-4-4-4-7-7-7-7-9-9-9-9-9--9--9---9-| 
E|-----------------7-7-7-7-------------| 

e|---------------------------------| 
B|---------------------------------| 
G|-6-6-6-6-9-9-9-9-----------------| 
D|-6-6-6-6-9-9-9-9-9-9-9-9-6-6-6-6-| 
A|-4-4-4-4-7-7-7-7-9-9-9-9-6-6-6-6-| 
E|-----------------7-7-7-7-4-4-4-4-| 

Bridge 

e| 
B|------------------------------------------------------------------| 
G|-----------------9-9-9-9-9-9-9-9-----------------9-9-9-9----------| 
D|-7-7-7-7-7-7-7-7-9-9-9-9-9-9-9-9-9-9-9-9-9-9-9-9-9-9-9-9----9-9-9-| 
A|-7-7-7-7-7-7-7-7-7-7-7-7-7-7-7-7-9-9-9-9-9-9-9-9-7-7-7-9----9-9-9-| 
E|-5-5-5-5-5-5-5-5-----------------7-7-7-7-7-7-7-7-------7----7-7-7-| 

Verse 
e|-------------------------------------| 
B|-------------------------------------| 
G|-6-6-6-6-9-9-9-9---------11-11-11-11-| 
D|-6-6-6-6-9-9-9-9-9-9-9-9-11-11-11-11-| 
A|-4-4-4-4-7-7-7-7-9-9-9-9-9--9--9---9-| 
E|-----------------7-7-7-7-------------| 

e|---------------------------------| 
B|---------------------------------| 
G|-6-6-6-6-9-9-9-9-----------------| 
D|-6-6-6-6-9-9-9-9-9-9-9-9-6-6-6-6-| 
A|-4-4-4-4-7-7-7-7-9-9-9-9-6-6-6-6-| 
E|-----------------7-7-7-7-4-4-4-4-| 

Bridge 

e| 
B|------------------------------------------------------------------| 
G|-----------------9-9-9-9-9-9-9-9-----------------9-9-9-9----------| 
D|-7-7-7-7-7-7-7-7-9-9-9-9-9-9-9-9-9-9-9-9-9-9-9-9-9-9-9-9----9-9-9-| 
A|-7-7-7-7-7-7-7-7-7-7-7-7-7-7-7-7-9-9-9-9-9-9-9-9-7-7-7-9----9-9-9-| 
E|-5-5-5-5-5-5-5-5-----------------7-7-7-7-7-7-7-7-------7----7-7-7-| 

Chorus 

guitar 1 

e|-------16-16-------16-16-------16------16----16-16------16-16------16----| 
B|-14-14-------14-14-------14-14----14--14---14------14-14------14-14--13--| 
G|-------------------------------------------------------------------------| 
D|-------------------------------------------------------------------------| 
A|-------------------------------------------------------------------------| 
E|-------------------------------------------------------------------------| 

e|-14/16-16-16-17-17-16-16--16-15-15-15-16-17-16-16-------16-16-----16-16-14-16| 
B|---------------------------------------------------14-14-----14-14-----------| 
G|-----------------------------------------------------------------------------| 
D|-----------------------------------------------------------------------------| 
A|-----------------------------------------------------------------------------| 
E|-----------------------------------------------------------------------------| 

guitar 2 

e|-----------------------------------------------------------------| 
B|-----------------------------------------------------------------| 
G|-6-6-6-6---------9-9-9-9---------6-6-6-6---------9-9-9-9-6-6-6-6-| 
D|-6-6-6-6-7-7-7-7-9-9-9-9-9-9-9-9-6-6-6-6-7-7-7-7-9-9-9-9-6-6-6-6-| 
A|-4-4-4-4-7-7-7-7-7-7-7-7-9-9-9-9-4-4-4-4-7-7-7-7-7-7-7-7-6-6-6-6-| 
E|---------5-5-5-5---------7-7-7-7---------5-5-5-5---------4-4-4-4-| 

e|-----------------------------------------------------------------| 
B|-----------------------------------------------------------------| 
G|-----------------9-9-9-9-9-9-9-9---------------------------------| 
G|-7-7-7-7-7-7-7-7-9-9-9-9-9-9-9-9-9-9-9-9-9-9-9-9-9-9-9-9-9-9-9-9-| 
A|-7-7-7-7-7-7-7-7-7-7-7-7-7-7-7-7-9-9-9-9-9-9-9-9-9-9-9-9-9-9-9-9-| 
E|-5-5-5-5-5-5-5-5-----------------7-7-7-7-7-7-7-7-7-7-7-7-7-7-7-7-| 

e|-----------------| 
B|-----------------| 
G|-----------------| 
D|-6-6-6-6-7--9--9-| 
A|-4-4-4-4-7--7--9-| 
E|---------5-----7-| 

guitar 1 and 2 

e|---------------------------------| 
B|---------------------------------| 
G|-6-6-6-6-9-9-9-9-----------------|2X 
D|-6-6-6-6-9-9-9-9-9-9-9-9-6-6-6-6-| 
A|-4-4-4-4-7-7-7-7-9-9-9-9-6-6-6-6-| 
E|-----------------7-7-7-7-4-4-4-4-| 


Verse 
e|-------------------------------------| 
B|-------------------------------------| 
G|-6-6-6-6-9-9-9-9---------11-11-11-11-| 
D|-6-6-6-6-9-9-9-9-9-9-9-9-11-11-11-11-| 
A|-4-4-4-4-7-7-7-7-9-9-9-9-9--9--9---9-| 
E|-----------------7-7-7-7-------------| 

e|---------------------------------| 
B|---------------------------------| 
G|-6-6-6-6-9-9-9-9-----------------| 
D|-6-6-6-6-9-9-9-9-9-9-9-9-6-6-6-6-| 
A|-4-4-4-4-7-7-7-7-9-9-9-9-6-6-6-6-| 
E|-----------------7-7-7-7-4-4-4-4-| 

Bridge 

e| 
B|------------------------------------------------------------------| 
G|-----------------9-9-9-9-9-9-9-9-----------------9-9-9-9----------| 
D|-7-7-7-7-7-7-7-7-9-9-9-9-9-9-9-9-9-9-9-9-9-9-9-9-9-9-9-9----9-9-9-| 
A|-7-7-7-7-7-7-7-7-7-7-7-7-7-7-7-7-9-9-9-9-9-9-9-9-7-7-7-9----9-9-9-| 
E|-5-5-5-5-5-5-5-5-----------------7-7-7-7-7-7-7-7-------7----7-7-7-| 

Verse 
e|-------------------------------------| 
B|-------------------------------------| 
G|-6-6-6-6-9-9-9-9---------11-11-11-11-| 
D|-6-6-6-6-9-9-9-9-9-9-9-9-11-11-11-11-| 
A|-4-4-4-4-7-7-7-7-9-9-9-9-9--9--9---9-| 
E|-----------------7-7-7-7-------------| 

e|---------------------------------| 
B|---------------------------------| 
G|-6-6-6-6-9-9-9-9-----------------| 
D|-6-6-6-6-9-9-9-9-9-9-9-9-6-6-6-6-| 
A|-4-4-4-4-7-7-7-7-9-9-9-9-6-6-6-6-| 
E|-----------------7-7-7-7-4-4-4-4-| 

Bridge 
[ Tab from: http://www.guitartabs.cc/tabs/b/bad_religion/punk_rock_song_tab_ver_4.html ]
e| 
B|------------------------------------------------------------------| 
G|-----------------9-9-9-9-9-9-9-9-----------------9-9-9-9----------| 
D|-7-7-7-7-7-7-7-7-9-9-9-9-9-9-9-9-9-9-9-9-9-9-9-9-9-9-9-9----9-9-9-| 
A|-7-7-7-7-7-7-7-7-7-7-7-7-7-7-7-7-9-9-9-9-9-9-9-9-7-7-7-9----9-9-9-| 
E|-5-5-5-5-5-5-5-5-----------------7-7-7-7-7-7-7-7-------7----7-7-7-| 

Chorus 

guitar 1 

e|-------16-16-------16-16-------16------16----16-16------16-16------16----| 
B|-14-14-------14-14-------14-14----14--14---14------14-14------14-14--13--| 
G|-------------------------------------------------------------------------| 
D|-------------------------------------------------------------------------| 
A|-------------------------------------------------------------------------| 
E|-------------------------------------------------------------------------| 

e|-14/16-16-16-17-17-16-16--16-15-15-15-16-17-16-16-------16-16-----16-16-14-16| 
B|---------------------------------------------------14-14-----14-14-----------| 
G|-----------------------------------------------------------------------------| 
D|-----------------------------------------------------------------------------| 
A|-----------------------------------------------------------------------------| 
E|-----------------------------------------------------------------------------| 

guitar 2 

e|-----------------------------------------------------------------| 
B|-----------------------------------------------------------------| 
G|-6-6-6-6---------9-9-9-9---------6-6-6-6---------9-9-9-9-6-6-6-6-| 
D|-6-6-6-6-7-7-7-7-9-9-9-9-9-9-9-9-6-6-6-6-7-7-7-7-9-9-9-9-6-6-6-6-| 
A|-4-4-4-4-7-7-7-7-7-7-7-7-9-9-9-9-4-4-4-4-7-7-7-7-7-7-7-7-6-6-6-6-| 
E|---------5-5-5-5---------7-7-7-7---------5-5-5-5---------4-4-4-4-| 

e|-----------------------------------------------------------------| 
B|-----------------------------------------------------------------| 
G|-----------------9-9-9-9-9-9-9-9---------------------------------| 
G|-7-7-7-7-7-7-7-7-9-9-9-9-9-9-9-9-9-9-9-9-9-9-9-9-9-9-9-9-9-9-9-9-| 
A|-7-7-7-7-7-7-7-7-7-7-7-7-7-7-7-7-9-9-9-9-9-9-9-9-9-9-9-9-9-9-9-9-| 
E|-5-5-5-5-5-5-5-5-----------------7-7-7-7-7-7-7-7-7-7-7-7-7-7-7-7-| 

e|-----------------| 
B|-----------------| 
G|-----------------| 
D|-6-6-6-6-7--9--9-| 
A|-4-4-4-4-7--7--9-| 
E|---------5-----7-| 

guitar 1 and 2 

e|---------------------------------| 
B|---------------------------------| 
G|-6-6-6-6-9-9-9-9-----------------|2X 
D|-6-6-6-6-9-9-9-9-9-9-9-9-6-6-6-6-| 
A|-4-4-4-4-7-7-7-7-9-9-9-9-6-6-6-6-| 
E|-----------------7-7-7-7-4-4-4-4-| 

solo 

guitar 1 
e|--------------------------------------------------------------------------| 
B|-14-14-----14-14-----14-----14--14-16-17-16-14--13-14---------------------| 
G|------12-13-----12-13--12-13-------------------------/13--------13--------| 
D|--------------------------------------------------------14-16-----14-16---| 
A|-------------------------------------------------------------16--------15-| 
E|--------------------------------------------------------------------------| 

e|---------------------------------| 
B|-----------9-12-12B-12-9---------| 
G|------9-11--------------11-9-11B-| 
D|-9-11----------------------------| 
A|---------------------------------| 
E|---------------------------------| 

guitar 2 

e|---------------------------------| 
B|---------------------------------| 
G|-6-6-6-6-9-9-9-9-----------------|4X 
D|-6-6-6-6-9-9-9-9-9-9-9-9-6-6-6-6-| 
A|-4-4-4-4-7-7-7-7-9-9-9-9-6-6-6-6-| 
E|-----------------7-7-7-7-4-4-4-4-| 

guitar 1 and 2 
e|-------------------------------------| 
B|-------------------------------------| 
G|-6-6-6-6-9-9-9-9---------11-11-11-11-|3x 
D|-6-6-6-6-9-9-9-9-9-9-9-9-11-11-11-11-| 
A|-4-4-4-4-7-7-7-7-9-9-9-9-9--9--9--9--| 
E|-----------------7-7-7-7-------------| 
p.m.......................| 

e|------------------------------------| 
B|------------------------------------| 
G|-6-6-6-6-9-9-9-9---9----------------| 
D|-6-6-6-6-9-9-9-9-9-9--9-9-9-9-9-9-9-| 
A|-4-4-4-4-7-7-7-7-9-7--9-9-9-9-9-9-9-| 
E|-----------------7----7-7-7-7-7-7-7-| 
p.m...............| p.m.........| 

bridge 

e|-----------------------------------------------------------------| 
B|-----------------------------------------------------------------| 
G|-----------------9-9-9-9-9-9-9-9-----------------9-9-9-----------| 
D|-7-7-7-7-7-7-7-7-9-9-9-9-9-9-9-9-9-9-9-9-9-9-9-9-9-9-9-9---9-9-9-| 
A|-7-7-7-7-7-7-7-7-7-7-7-7-7-7-7-7-9-9-9-9-9-9-9-9-7-7-7-9---9-9-9-| 
E|-5-5-5-5-5-5-5-5-----------------7-7-7-7-7-7-7-7-------7---7-7-7-| 

e|-------------------------| 
B|-------------------------| 
G|-------------------------| 
D|-9-9-9-9-9-9-9-9-9-9-9-9-| 
A|-9-9-9-9-9-9-9-9-9-9-9-9-| 
e|-7-7-7-7-7-7-7-7-7-7-7-7-| 

Chorus 

guitar 1 

e|-------16-16-------16-16-------16------16----16-16------16-16------16----| 
B|-14-14-------14-14-------14-14----14--14---14------14-14------14-14--13--| 
G|-------------------------------------------------------------------------| 
D|-------------------------------------------------------------------------| 
A|-------------------------------------------------------------------------| 
E|-------------------------------------------------------------------------| 

e|-14/16-16-16-17-17-16-16--16-15-15-15-16-17-16-16-------16-16-----16-16-14-16| 
B|---------------------------------------------------14-14-----14-14-----------| 
G|-----------------------------------------------------------------------------| 
D|-----------------------------------------------------------------------------| 
A|-----------------------------------------------------------------------------| 
E|-----------------------------------------------------------------------------| 

guitar 2 

e|-----------------------------------------------------------------| 
B|-----------------------------------------------------------------| 
G|-6-6-6-6---------9-9-9-9---------6-6-6-6---------9-9-9-9-6-6-6-6-| 
D|-6-6-6-6-7-7-7-7-9-9-9-9-9-9-9-9-6-6-6-6-7-7-7-7-9-9-9-9-6-6-6-6-| 
A|-4-4-4-4-7-7-7-7-7-7-7-7-9-9-9-9-4-4-4-4-7-7-7-7-7-7-7-7-6-6-6-6-| 
E|---------5-5-5-5---------7-7-7-7---------5-5-5-5---------4-4-4-4-| 

e|-----------------| 
B|-----------------| 
G|-6-6-6-6----9--9-| 
D|-6-6-6-6-7--9--9-| 
A|-4-4-4-4-7--7--9-| 
E|---------5-----7-|
Comments