Bad Religion - No Substance Chords & Tabs

 

No Substance Chords & Tabs

Bad Religion Chords & Tabs

Version: 1 Type: Tab 0 ratings
1 star 2 stars 3 stars 4 stars 5 stars
comments

No Substance Tab

      Intro
	
E--0----0------0--0----0-----------------
B--0----0------0--0----0-----------------
G--7----7------10-10---9-----------------
D--7----7------10-10---10----------------
A--5----5------8--8----10----------------
E----------------------8-----------------


      Main Riff

E------------------------------------------------
B------------------------------------------------
G--2---2--------2-----------2--2-----------------
D--0---0--------0--------0--3--2--0--2-----------
A---------3--0-----0--3--------------3-----0--3--
E---------------------------------------3--------
[ Tab from: http://www.guitartabs.cc/tabs/b/bad_religion/no_substance_tab.html ]
     Second Verse

E--------------------------------------------
B--------------------------------------------
G--7--7--7----7--7----2--2--2--5----5--5--7--
D--7--7--8----8--8----3--3--3--5----5--5--7--
A--5--5--8----8--8----3--3--3--3----3--3--5--
E--------6----6--6----1--1--1----------------

     Chorus

E--------------------------------------------------
B--------------------------------------------------
G--7--------5--------7--------2--------4--------6--
D--7--------5--------8--------3--------5--------7--
A--5--------3--------8--------3--------5--------7--
E--------------------6--------1--------3--------5--
Comments