Bad Religion - New America Chords & Tabs

 

New America Chords & Tabs

Bad Religion Chords & Tabs

Version: 1 Type: Tab 0 ratings
1 star 2 stars 3 stars 4 stars 5 stars
comments

New America Tab

   
|-----------|
|NEW AMERICA|
|-----------|


Tabbed out by Christopher L. Exner (cexner@pclink.com)


   INTRO/VERSE
    F          D#A#    D#
e|-------------------------
B|-------------------------
G|--1010101010-8-------8--- 
D|--1010101010-8-88888-8---
A|--8-8-8-8-8--6-88888-6---
E|---------------66666-----

e|-------------------------
B|-------------------------
G|--1010101010-8-------888-
D|--1010101010-8-88888-888-
A|--8-8-8-8-8--6-88888-666-
E|---------------66666-----

   FILL OVER INTRO/VERSE
e|--5555-6-5-6------6666-8-6-8--
B|--6666-6-6-6------6666-6-6-6--
G|------------------------------

   VERSE (Palm muted)
    F              C
    (alternate picking style to get "gallop" effect)
G|--------------------------------
D|-----------------5--5-----------
A|--3--3->>>>>>>>--3--3->>>>>>>>--
E|--1--1->>>>>>>>-----------------

   PLAY THIS OVER VERSE
    A#  F      A#  F       F  C
   "Do  you..."
e|--------------------------------------
B|--3---1-1----3---1-1-----1--1---111---
G|--3---2-2----3---2-2--0--2--0---000---
D|--3---3-3----3---3-3--0--3--2---222---
A|--1---3-3----1---3-3-----3--3---333---
E|--------------------------------------
[ Tab from: http://www.guitartabs.cc/tabs/b/bad_religion/new_america_tab.html ]
   "we are just a step away.."
    A#      F           C
G|------------------------------------
D|--33333---1010101010--55555-55555---
A|--11111---8-8-8-8-8---33333-33333---
E|------------------------------------


  CHORUS
   A#        F         C
G|-----------------------------55555555---
D|-33333333------------5555555555555555---
A|-11111111--33333333--3333333333333333---
E|-----------11111111---------------------

  FILL THAT GOES OVER CHORUS
   A#       F        C
e|-11111111-11111111-3333333333333333----
B|-33333333-11111111-5555555553335353----
G|---------------------------------------
D|---------------------------------------
   SOLO
e|-6--5-5----55-6---6-6-5-------------8~--6--5-5-3---5-6-5------12--13---15--13--12~
B|-6(let this note ring)--6---5---8-------6--------6-------6--13--13---13--13--13---
G|--------------------------5-------------------------------------------------------

   CHORDS FOR BUILD-UP SECTION
   A#     F     C     
G|-------------------55555555---
D|-8-----/3-----5----55555555---
A|-8-----/3-----3----33333333---
E|-6-----/1---------------------

e|--------------------------------
B|--------------------------------
G|--1010101010-8-------888-----10-
D|--1010101010-8-88888-888-----10-
A|--8-8-8-8-8--6-88888-666-----8--
E|---------------66666------------


 Anyone in the Twin Cities area wanna jam? E-mail me.
Comments