Bad Religion - My Defence Chords & Tabs

 

My Defence Chords & Tabs

Bad Religion Chords & Tabs

Version: 1 Type: Tab 0 ratings
1 star 2 stars 3 stars 4 stars 5 stars
comments

My Defence Tab

Author/Artist: Bad Religion
Title: The Defense
Album: The Process Of Belief
Transcribed by: Lee Newsome
Email: I_am_going_to_conquer_the_world@hotmail.com

I'm a huge BR fan and just got their new album so I decided to tab my fave song from it,
this is prolly wrong but its just a guide :P only the rhythm as well, no way i doin the Lead lol

Standard Tuning

(intro)
|----------------------------------------------------
|---------------3------------------------------------
|----4----0h2---------5--4---------------------------
|----------------------------------------------------
|----------------------------------------------------
|----------------------------------------------------


[ Tab from: http://www.guitartabs.cc/tabs/b/bad_religion/my_defence_tab.html ]
(verse/bridge)
|----------------------------------------------------
|----------------------------------------------------
|----------------------------------------------------
|----9--10---9--10---9--10---9--10--12--10-----------
|----9--10---9--10---9--10---9--10--12--10-----------
|----7---8---7---8---7---8---7---8--10---8-----------          
     


(chorus)
no peace, no friends...
|----------------------------------------------------
|----------------------------------------------------
|----9-------7---------------------------------------
|----9-------7-------7------4---5--------------------
|----7-------5-------7------4---5--------------------
|--------------------5------2---3--------------------
Comments