Bad Religion - Materialist Chords & Tabs

 

Materialist Chords & Tabs

Bad Religion Chords & Tabs

Version: 1 Type: Tab 0 ratings
1 star 2 stars 3 stars 4 stars 5 stars
comments

Materialist Tab

-------------------------------------------------------------------------------
			     Materialist - Bad Religion
-------------------------------------------------------------------------------

By:Russ  RAWjackass@aol.com

INTRO:

e|------------------------------------------------------|
B|------------------------------------------------------|
G|------------------------------------------------------|
D|--------------9------------9-----------9--------------|
A|--999/10/9-9997-999/10/9-9997-999/10/9-9997--999/10/9-|
E|--777/-8/7-7777-777/-8/7-7777-777/-8/7-7777--777/-8/7-|

VERSE1: x1

e|--------------------------------------------------------------------------|
B|--------------------------------------------------------------------------|
G|--------------------------------------------------------------------------|
D|-7777------9999---------------77777777------7777--------------------------|
A|-5555-7777-7777-4444-55555555-55555555-5555-5555-7777~-999--999--999--997-|
E|------5555------2222-33333333----------3333------5555~-777--777--777--777-|

Pre-Chorus: R guitar x1

e|---------------------------------------------------------------------------|
B|---------------------------------------------------------------------------|
G|---------------------------------------------------------------------------|
D|----------------------------------------------------------9----------------|
A|-9999-5555-77777777-9999-5555 77777777-9999-5555-77777777/7----------------|
E|-7777-3333-55555555-7777-3333-55555555-7777-3333-55555555/7----------------|

Pre-Chorus: L guitar

e|-70-70-70-70-70-70-70--------------------------------------------------|
B|-00-00-00-00-00-00-00--x3----------------------------------------------|
G|-99-99-99-99-99-99-99--------------------------------------------------|
D|-----------------------------------------------------------------------|
A|-----------------------------------------------------------------------|
E|-----------------------------------------------------------------------|

Chorus: x2
[ Tab from: http://www.guitartabs.cc/tabs/b/bad_religion/materialist_tab.html ]
e|---------------------------------------------------------------------|
B|---------------------------------------------------------------------|
G|---------------------------------------------------------------------|
D|---------------------------------------7777---------------77---------|
A|-999/10/9-997-999/10/9-997-999/10/9-99-5555-7777-55555555-55-777777--|
E|-777/-8/7-777-777/-8/7-777-777/-8/7-77------5555-33333333----555555--|

Chorus: Lead

e|-------------------------------------------------------------------------|
B|--------------------------------------------------------10-12~-15-14~----|
G|------8h9r8---------------------------8h9~11-9r8h11r9h11-----------------|
D|-99~10-----9/10-99~10/7h9r7/10--99~10------------------------------------|
A|-------------------------------------------------------------------------|
E|-------------------------------------------------------------------------|

VERSE 2: x1

e|-------------------------------------------------------------------------|
B|-------------------------------------------------------------------------|
G|-------------------------------------------------------------------------|
D|-7777------9999-11111111-7777------9999-4444----------77777777------7777-|
A|-5555-7777-7777--9-9-9-9-5555-7777-7777-2222-55555555-55555555-5555-5555-|
E|------5555--------------------5555-----------33333333----------3333------|

e|--------------------------|            
B|--------------------------|     
G|--------------------------|   Pre-chorus: x1 
D|--------------------------|
A|-7777~--999-999-999-997---|   Chorus: x1
E|-5555~--777-777-777-777---|

BRIDGE:

e|-------------------------|
B|-------------------------|
G|-------------------------|
D|-------------------------| x 4
A|-9999-5555-77777777------|
E|-7777-3333-55555555------|
  ...pm..............

OUTRO:

e|--------------------------------------------------------------|
B|--------------------------------------------------------------|
G|--------------------------------------------------------------|
D|-----------------------------------------7777-----------------|
A|--999/10/9-997-999/10/9-997-999/10/9-997-5555-7777-9-99/10/9--|
E|--777/-8/7-777-777/-8/7-777-777/-8/7-777------5555-7-77/-8/7--|
  
e|---------------------------------------------------------------|
B|---------------------------------------------------------------|
G|-------8h9r8--------------------------8h9r8----8h11r9h11r9/8~--|
D|--99~10-----9/10-99~10/7h9r7/10-99~10------9910----------------|
A|---------------------------------------------------------------|
E|---------------------------------------------------------------|
Comments