Bad Religion - Lookin In Chords & Tabs

 

Lookin In Chords & Tabs

Bad Religion Chords & Tabs

Version: 1 Type: Bass Tab 0 ratings
1 star 2 stars 3 stars 4 stars 5 stars
comments

Lookin In Bass Tab

-------------------------------------------------------------------------------
			      LOOKIN' IN - Bad Religion
-------------------------------------------------------------------------------

By: Luca Zoffoli

Intro                       
G:------------------
D:------------------
A:------3--5>-------
E:--1>--------------

Verse
G:--------------------------------------|------------
D:--------------------------------------|------------
A:--0>-2-3-5-7-0>-3-2-0-3-0>-2-3-5-7-0>-|-3----------
E:--------------------------------------|---1-3-0----

then play only the first part of Verse

End of verse1
G:---------------------------|------------
D:---------------------------|------------
A:--0>-2-3-5-7-0>-3-2-0-3-0>-|-3>---5>----
E:---------------------------|------------

then play only the first part of Verse
[ Tab from: http://www.guitartabs.cc/tabs/b/bad_religion/lookin_in_btab.html ]
End of verse2
G:---------------------------|------------
D:---------------------------|------------
A:--0>-2-3-5-7-0>-3-2-0-3-0>-|----5--0>---
E:---------------------------|-1>---------

Chorus
          x4       x4
G:--------|--------|
D:--3-0---|--5-0---|
A:--------|--------|
E:--------|--------|

then play only the first part of Verse

Chorus

Then play this part
G:----------------
D:--2>-3-2--------
A:---------3-2----
E:----------------

End of verse3
G:---------------------------|------------
D:---------------------------|------------
A:--0>-2-3-5-7-0>-3-2-0-3-0>-|----3--5>---
E:---------------------------|-1>---------

then play only the first part of Verse

Chorus x2

then play only the first part of Verse

Chorus x2

Then play this part
G:----------------
D:--2>-3-2--------
A:---------3-2----
E:----------------

then play only the first part of Verse

End with this part
G:---------------------------
D:---------------------------
A:--0>-2-3-5-7-0>-3-2-0-3-0--
E:---------------------------

For question or suggestion: alucard@wappi.com

Comments