Bad Religion - Kyoto Now Chords & Tabs

 

Kyoto Now Chords & Tabs

Bad Religion Chords & Tabs

Version: 4 Type: Tab 0 ratings
1 star 2 stars 3 stars 4 stars 5 stars
comments

Kyoto Now Tab

-----------------------------------------------------------------------
		    Kyoto Now - Bad Religion
-----------------------------------------------------------------------
Tabbed by: Sam Johnson
Email: elcapitan@charter.net

Tuning: Standard

This is an awesome song. Im a big Bad Religion fan and spent a hell of a long time on
it and even tho its not perfect, it sounds really good. Just play it in the order I
wrote it, its really easy to figure out. Email me with questions, good luck, and rate
it if you like it! =)

Intro
e|--------------------------------------------------------------------|
B|--------------------------------------------------------------------|
G|--7-7-7-7-10-10-10-10-14-14-14-15-14--------------------------------|
D|--7-7-7-7-10-10-10-10-14-14-14-15-14--------------------------------|
A|--5-5-5-5-8--8--8--8--12-12-12-13-12--------------------------------|
E|--------------------------------------------------------------------|

e|------------------------------------------------|      |--0---------|
B|------------------------------------------------|      |--0---------|
G|--12-12-12-12-8-8-8-8-5-5-7-8-7-----------------|      |--7---------|
D|--12-12-12-12-8-8-8-8-5-5-7-8-7-----------------|      |--7---------|
A|--10-10-10-10-6-6-6-6-3-3-5-6-5-----------------|      |--5---------|
E|------------------------------------------------| x2   |--0-let ring|

Main Riff
e|--------------------------------------------------------------------|
B|--------------------------------------------------------------------|
G|--7-7-7-7-5---5-5/7-7-----------------------------------------------|
D|--7-7-7-7-5---5-5/7-7-----------------------------------------------|
A|--5-5-5-5-3---3-3/5-5-----------------------------------------------|
E|--------------------------------------------------------------------| x5

Verse 1
e|--------------------------------------------------------------------| 
B|--------------------------------------------------------------------| 
G|--------------------------------------------------------------------| 
D|--6/8-8-8-8--8-8-8--6/8-8-10-10--10-10-10---------------------------| 
A|--4/6-6-6-6--6-6-6--4/6-6-8--8---8--8--8----------------------------| 
E|--------------------------------------------------------------------| x4

Pre-Chorus
e|--------------------------------------------------------------------|
B|--------------------------------------------------------------------|
G|--------------------------------------------------------------------|
D|--6-6-6-6-8-8-8-8-10-10-11-10---------------------------------------|
A|--4-4-4-4-6-6-6-6-8--8--9--8----------------------------------------|
E|--------------------------------------------------------------------|
[ Tab from: http://www.guitartabs.cc/tabs/b/bad_religion/kyoto_now_tab_ver_4.html ]
Chorus 
e|--------------------------------------------------------------------| 
B|--------------------------------------------------------------------| 
G|-----------6-6-6-6-----------8-8-8-8--------------------------------| 
D|--8-8-8-8--6-6-6-6--6-6-6-6--8-8-8-8--------------------------------| 
A|--8-8-8-8--4-4-4-4--6-6-6-6--6-6-6-6--------------------------------| 
E|--6-6-6-6-----------4-4-4-4-----------------------------------------| x4

Bridge
e|--------------------------------------------------------------------|
B|--------------------------------------------------------------------| 
G|--------------------------------------------------------------------| 
D|--10-10-10/11\10--5-5-5/7\5-----------------------------------------| 
A|---8--8--8/-9\-8--3-3-3/5\3-----------------------------------------| 
E|--------------------------------------------------------------------| 

Main Riff x1

Verse 2
e|--------------------------------------------------------------------|
B|--------------------------------------------------------------------|
G|--7-7-7-7-5--5-5-5--5-5/7-7-7--7-7-7--------------------------------|
D|--7-7-7-7-5--5-5-5--5-5/7-7-7--7-7-7--------------------------------|
A|--5-5-5-5-3--3-3-3--3-3/5-5-5--5-5-5--------------------------------|
E|--------------------------------------------------------------------| x4

Verse 1 and Pre-Chorus

Chorus x2

Pre-Solo 
e|--------------------------------------------------------------------| 
B|--------------------------------------------------------------------| 
G|--------------------------------------------------------------------| 
D|--------------------------------------------------------------------| 
A|--3-3-3/5\3--3/4-4/5-5/6-6/8----------------------------------------| 
E|--1-1-1/3\1--1/2-2/3-3/4-4/6----------------------------------------| 

Guitar Solo
e|--------------------------------------------------------------------|
B|-----------------------------14----------------------14-------------|
G|--13h15-15--13h15-15--13h15------15p13h15--15p13h15------15---------|
D|--------------------------------------------------------------------|
A|--------------------------------------------------------------------|
E|--------------------------------------------------------------------|

e|--------------------------------------------------------------------|
B|--17p14p13----------------------------------------------------------|
G|------------13h15-15h--13h15p13--15p13------------------------------|
D|----------------------------------------15p13p11--------------------|
A|--------------------------------------------------13-13-13--13------|
E|--------------------------------------------------------------------|

e|--------------------------------------------------------------------|
B|----------------------------------13h14h16p14p11--------------------|
G|--11h13p11--10--11--13-10--13h15------------------13p11~--16p14p11--|
D|--------------------------------------------------------------------|
A|--------------------------------------------------------------------|
E|--------------------------------------------------------------------|

Chorus x2

Outro
e|--------------------------------------------------------------------|
B|--------------------------------------------------------------------|
G|--10--6--8-8-8--8-8-8-8--8-8-8-8------------------------------------|
D|--10--6--8-8-8--8-8-8-8--8-8-8-8--8---------------------------------|
A|--8---4--6-6-6--6-6-6-6--6-6-6-6--8---------------------------------|
E|----------------------------------6---------------------------------|
Comments