Bad Religion - Infected Chords & Tabs

 

Infected Chords & Tabs

Bad Religion Chords & Tabs

Version: 4 Type: Tab 0 ratings
1 star 2 stars 3 stars 4 stars 5 stars
comments

Infected Tab

bad religion

Infected

Tabbed by Miluardo - Cody Heimpel

Sorry this is just the opening i will up date it later when i have the whole thing.


|----------------------------|
|----------------------------|
|------------3333/-5555------|    X3
|--5555-3333-3333/-5555------|
|--5555-3333-1111/-3333------|
|--3333-1111-----------------|
PM..........................
[ Tab from: http://www.guitartabs.cc/tabs/b/bad_religion/infected_tab_ver_4.html ]
|--------------------------------|
|--------------------------------|
|------------333-2---------------|
|--5555-3333-333-2-3333----------|
|--5555-3333-111-0-3333----------|
|--3333-1111-------1111----------|
PM..........

|----------------------------|
|----------------------------|
|------------3333/-5555------|
|--5555-3333-3333/-5555------| X3
|--5555-3333-1111/-3333------|
|--3333-1111-----------------|

|--------------------------------|
|--------------------------------|
|------------333-2---------------|
|--5555-3333-333-2-3333----------|
|--5555-3333-111-0-3333----------|
|--3333-1111-------1111----------|
Comments