Bad Religion - Infected Chords & Tabs

 

Infected Chords & Tabs

Bad Religion Chords & Tabs

Version: 2 Type: Bass Tab 0 ratings
1 star 2 stars 3 stars 4 stars 5 stars
comments

Infected Bass Tab

THere are lots of 
different tabs for this song
this is the only right one

- - - - - - - - - - - - - - - |
- - - - - - - - - - - - - - - |
- - - - - - -0-3-3-3-/4-/5-5-5|
5-5-5-0-1-1-1- - - - - - - - -|
That is the intro
it is played the same on guitar except in
bare chocrds.
[ Tab from: http://www.guitartabs.cc/tabs/b/bad_religion/infected_btab_ver_2.html ]
The next part u just
keep reating for the whole song 
it is pretty
easy

Riff 1
-----------------------------------|
-----------------------------------|
-----6---3333-6665-3-65------------|
-3-4---6---------------------------|

If u have any questions e-mail me(hooves_man@hotmail.com)
Comments