Bad Religion - I Want To Conquer The World Chords & Tabs

 

I Want To Conquer The World Chords & Tabs

Bad Religion Chords & Tabs

Version: 2 Type: Tab 0 ratings
1 star 2 stars 3 stars 4 stars 5 stars
comments

I Want To Conquer The World Tab

**************************************************
*Title: I Want To Conquer The World              *
*Album: No Control                               *
*By: Bad Religion                                *
*Tabbed by: Dusty Nerpin (ibecookin@hotmail.com) *
*I would like to thank Emily Benson              *
*(anotherloseronbus55@hotmail.com)               *  
*for the first tab, which helped me out.         *
* Jan.13.2003                                    *
**************************************************
Here it goes, for my fav Bad Religion song. It's really fun to play too!

Intro solo: (0:01 - 0:13)
e|------------------------------------------------------------------------------
B|--12--------------12----------------------------------------------------------
G|--11b13-----HOLD13b9----------------------------------------------------------
D|------------------------11~-------11p9----------------------------------------
A|-----------------------------------------11p9--7----------------7-------------
E|--------------------------------------------------9--------7h9-----------7----
  
--------------------------------------------------------------------------------
--------------------------------------------------------9h12p9------9h12p9------
-------------------------------------------9b11-----------------11--------------
---------------9--------------------9--11---------------------------------------
----7--7h9/11-----------------9h11----------------------------------------------
h9------------------------------------------------------------------------------

--------------------------------------------------------------------------------
----9h12p9------9h12p9------9----------------9-----9--9---------9-----9--9------
11----------11----------11-----11--9~--------9-----9--9---------9-----9--9------
-----------------------------------------11-----------------11------------------
--------------------------------------------------------------------------------
--------------------------------------------------------------------------------

-----------------------------------|(use your tremolo lightly at end,
----11-----11--11------9-----------|or wildly what ever it's whatever
----11-----11--11------9-----------|floats your boat)
11-----------------11--------------|
-----------------------------------|
-----------------------------------|

(0:01 - 0:13)
Ryhthm for intro solo: play 2x
(strumming not shown, sorry guys)
e|------------------------------------------------------------|
B|------------------------------------------------------------|
G|-6--4------6--4------4-4------------------------------------|
D|-6--4-7-3--6--4-7-1--4-4------------------------------------|
A|-4--2-7-3--4--2-7-1--6-2------------------------------------|
E|------5-1-------5-3-----------------------------------------|

_____________________________________________________________

(0:13 - 0:16)
  hey brother christian with your high and mighty errand,
e|----------------------------------------------------------|
B|----------------------------------------------------------|
G|-6-----------------------4--------------------------------|
D|-6-----------------------4----5------------------------3--|
A|-4-----------------------2----5------------------------3--|
E|------------------------------7------------------------1--|

(0:16 - 0:19)
   your actions speak so loud I can't hear a word your sayin'
e|-----------------------------------------------------------|
B|-----------------------------------------------------------|
G|-6-------------4-----------------------------------------4-|
D|-6-------------4-----7---------------------------------3-4-|
A|-4-------------2-----7---------------------------------3-2-|
E|---------------------5---------------------------------1---|

(0:19 - 0:22)
  hey sister bleeding heart with all of your compassion,
e|-----------------------------------------------------------|
B|-----------------------------------------------------------|
G|-6--------4------------------------------------------------|
D|-6--------4-----------5--------------------------3---------|
A|-4--------2-----------5--------------------------3---------|
E|----------------------7--------------------------1---------|

(0:23 - 0:25)
  your labors soothe the hurt but can't assuage temptation
e|------------------------------------------------------------|
B|------------------------------------------------------------|
G|-6-------------4----------------------------------4---------|
D|-6-------------4-----7-------------------------3--4---------|
A|-4-------------2-----7-------------------------3--2---------|
E|---------------------5-------------------------1------------|

______________________________________________________________

(0:25 - 0:31)
Solo #2 (theare bends mostly fairly quick,just listen to song)
e|-------------9-------------------------------------------------------------9-
B|----------------12------------------------------------------------------9----
G|11b13---------------11b13-----9---------9--11b13-----11p9-----11b13----------
D|------------------------------------11---------------------------------------
A|-----------------------------------------------------------------------------
E|-----------------------------------------------------------------------------
                                                                              
-------9--11h12--11--11h12--11------|
9--12---------------------------14--|
------------------------------------|
------------------------------------|
------------------------------------|
------------------------------------|

Ryhthm for 2nd solo: play 1x
(strumming not shown)
e|------------------------------------------------------------|
B|------------------------------------------------------------|
G|-6--4------6--4------4-4------------------------------------|
D|-6--4-7-3--6--4-7-1--4-4------------------------------------|
A|-4--2-7-3--4--2-7-1--6-2------------------------------------|
E|------5-1-------5-3-----------------------------------------|

_________________________________________________________

(0:32 - 0:34)
  hey man of science with your perfect rules of measure,
e|------------------------------------------------------------|
B|------------------------------------------------------------|
G|-6------------------4---------------------------------------|
D|-6------------------4-----5------------------------3--------|
A|-4------------------2-----5------------------------3--------|
E|--------------------------7------------------------1--------|

(0:35 - 0:37)
  can you improve this place with the data that you gather
e|------------------------------------------------------------|
B|------------------------------------------------------------|
G|-6-------------4-------------------------------------4------|
D|-6-------------4----------7-----------------------3--4------|
A|-4-------------2----------7-----------------------3--2------|
E|--------------------------5-----------------------1---------|

(0:38 - 0:40)
  hey mother mercy can your loins bear fruit forever?
e|------------------------------------------------------------|
B|------------------------------------------------------------|
G|-6---------------4------------------------------------------|
D|-6---------------4-----5-------------------------3----------|
A|-4---------------2-----5-------------------------3----------|
E|-----------------------7-------------------------1----------|

(0:41 - 0:43)
  is your fecundity a trammel or a treasure?
e|------------------------------------------------------------|
B|------------------------------------------------------------|
G|-6------4----------------------------4----------------------|
D|-6------4----7--------------------3--4----------------------|
A|-4------2----7--------------------3--2----------------------|
E|-------------5--------------------1-------------------------|

(0:41 - 0:46)
-Interlude-
e|------------------------------------------------------------|
B|------------------------------------------------------------|
G|--------------------4---------------------------------------|
D|--------------7-----4------3--------------------------------|
A|--------------7-----2------3--------------------------------|
E|--------------5------------1--------------------------------|

(0:46 - 0:49)
  I want to conquer the world,
e|------------------------------------------------------------|
B|------------------------------------------------------------|
G|-6---4------------------------------------------------------|
D|-6---4-----5-------------3----------------------------------|
A|-4---2-----5-------------3----------------------------------|
E|-----------7-------------1----------------------------------|

(0:49 - 0:52)
  give all the idiots a brand new religion,
e|------------------------------------------------------------|
B|------------------------------------------------------------|
G|-6-------4--------------------------------------------------|
D|-6-------4-----------7-----------3--------------------------|
A|-4-------2-----------7-----------3--------------------------|
E|---------------------5-----------1--------------------------|

(0:53 - 0:54)
  put an end to poverty uncleanliness
e|------------------------------------------------------------|
B|------------------------------------------------------------|
G|-6------------4---------------------------------------------|
D|-6------------4--------7------------------------------------|
A|-4------------2--------7------------------------------------|
E|-----------------------5------------------------------------|

(0:54 - 0:59)
  and toll promote equality in all of my decisions
e|------------------------------------------------------------|
B|------------------------------------------------------------|
G|-1---6-----------4------------------------------------------|
D|-1---6-----------4--------7---------------------------------|
A|-3---4-----------2--------7---------------------------------|
E|--------------------------5---------------------------------|
[ Tab from: http://www.guitartabs.cc/tabs/b/bad_religion/i_want_to_conquer_the_world_tab_ver_2.html ]
(0:59 - 1:02)
  with a quick wink of the eye and a "god you must be joking"
e|------------------------------------------------------------|
B|------------------------------------------------------------|
G|---------------------------------6--------------------------|
D|----5----------------------------6--------------------------|
A|----5----------------------------4--------------------------|
E|----3-------------------------------------------------------|
_____________________________________________________________________________

(1:02 - 1:14)
Ryhthm for 3nd solo: play 2x
(strumming not shown)
e|------------------------------------------------------------|
B|------------------------------------------------------------|
G|-6--4------6--4------4-4------------------------------------|
D|-6--4-7-3--6--4-7-1--4-4------------------------------------|
A|-4--2-7-3--4--2-7-1--6-2------------------------------------|
E|------5-1-------5-3-----------------------------------------|

_____________________________________________________________________________

(1:02 - 1:14)
Solo #3(from another tab,because i can't figure it out, but here ya go) 
E|---------------------------------------------------------------------------
B|9-----------*9--9---------------9--9------------9--9---------------9--9----
G|11b13-----------11b13--------------11b13----------11b13---------------11b13
D|--bend---------------------------------------------------------------------
A|------------*hold these----------------------------------------------------
E|---------------------------------------------------------------------------
  
-----------------------------------------------------------------------------
---------9--9---------------9--9------------9--9------------9-----9----------
------------11b13--------------11b13-----------11b13--------------11b13------
-----------------------------------------------------------------------------
-----------------------------------------------------------------------------
-----------------------------------------------------------------------------
                                                                              
----------------------------------------------------------------------------
12--------------------------------------------------------------------------
--11b13--11p9--------9h11---------------9-----------------------------------
-reverse bend--------(tremolo)-----11-----11p9------9-----------------------
-----------------------------------------------11-----11p9--11p9\7----------
--------------------------------------------------------------------------7-

------------------------------------------------------------------------|
----------------9-------------------9h12p9------9h12p9------9h12b14~----|
----------------9------9--11b13------------11----------11------(tremolo)|
-------------------11---------------------------------------------------|
----7-----9/11----------------------------------------------------------|
h9----------------------------------------------------------------------|

_________________________________________________________________________


(1:15 - 1:18) 
  hey mister diplomat with your worldly aspirations,
e|------------------------------------------------------------|
B|------------------------------------------------------------|
G|-6-------4--------------------------------------------------|
D|-6-------4--7----------------------------------3------------|
A|-4-------2--7----------------------------------3------------|
E|------------5----------------------------------1------------|

(1:18 - 1:20)
  did you see the children cry when you left them at the station?
e|-------------------------------------------------------------|
B|-------------------------------------------------------------|
G|-6-------------4-------------------------------------------4-|
D|-6-------------4----------7-----------------------------3--4-|
A|-4-------------2----------7-----------------------------3--2-|
E|--------------------------5-----------------------------1----|

(1:21 - 1:23)
  hey moral soldier you've got righteous proclamations
e|------------------------------------------------------------|
B|------------------------------------------------------------|
G|-6-------4--------------------------------------------------|
D|-6-------4------7-------------------------------3-----------|
A|-4-------2------7-------------------------------3-----------|
E|----------------5-------------------------------1-----------|

(1:23 - 1:26)
  and precious tomes to fuel your pulpy conflagrations
e|------------------------------------------------------------|
B|------------------------------------------------------------|
G|-6-------------4-----------------------------4--------------|
D|-6-------------4-------7------------------3--4--------------|
A|-4-------------2-------7------------------3--2--------------|
E|-----------------------5------------------1-----------------|

(1:26 - 1:29)
-Interlude-
e|------------------------------------------------------------|
B|------------------------------------------------------------|
G|-------4----------------------------------------------------|
D|-7-----4------3---------------------------------------------|
A|-7-----2------3---------------------------------------------|
E|-5------------1---------------------------------------------|

(1:29 - 1:33)
  and I want to conquer the world,
e|------------------------------------------------------------|
B|------------------------------------------------------------|
G|-6---4------------------------------------------------------|
D|-6---4-----5-------------3----------------------------------|
A|-4---2-----5-------------3----------------------------------|
E|-----------7-------------1----------------------------------|

(1:33 - 1:36)
  give all the idiots a brand new religion,
e|------------------------------------------------------------|
B|------------------------------------------------------------|
G|-6-------4--------------------------------------------------|
D|-6-------4-----------7-----------3--------------------------|
A|-4-------2-----------7-----------3--------------------------|
E|---------------------5-----------1--------------------------|

(1:36 - 1:39)
  put an end to poverty uncleanliness and toll
e|------------------------------------------------------------|
B|------------------------------------------------------------|
G|-6------------4---------------------4-----------------------|
D|-6------------4--------7------------4-----------------------|
A|-4------------2--------7------------2-----------------------|
E|-----------------------5------------------------------------|

(1:39 - 1:42)
  promote equality in all of my decisions
e|------------------------------------------------------------|
B|------------------------------------------------------------|
G|-1---6-----------4------------------------------------------|
D|-1---6-----------4--------7---------------------------------|
A|-3---4-----------2--------7---------------------------------|
E|--------------------------5---------------------------------|

(1:42 - 1:45)
 and I want to conquer the world,
e|------------------------------------------------------------|
B|------------------------------------------------------------|
G|-6-4--------------------------------------------------------|
D|-6-4-------7--------------3---------------------------------|
A|-4-2-------7--------------3---------------------------------|
E|-----------5--------------1---------------------------------|

(1:45 - 1:48)
  expose the culprits and feed them to the children,
e|-------------------------------------------------------------|
B|-------------------------------------------------------------|
G|-6---------4-------------------------------------------------|
D|-6---------4-------------7-----------------3-----------------|
A|-4---------2-------------7-----------------3-----------------|
E|-------------------------5-----------------1-----------------|

(1:48 - 1:51)
do away with air pollution and then I'll save the whales,
e|------------------------------------------------------------|
B|------------------------------------------------------------|
G|-6---------4------------------------------------------------|
D|-6---------4-----------------7------------------3-----------|
A|-4---------2-----------------7------------------3-----------|
E|-----------------------------5------------------1-----------|

(1:51 - 1:54)
  we'll have peace on earth and global communion
e|------------------------------------------------------------|
B|------------------------------------------------------------|
G|-6---------4--------------------------4---------------------|
D|-6---------4------------------7-------4---------------------|
A|-4---------2------------------7-------2---------------------|
E|------------------------------5-----------------------------|

(1:54 - 1:57)
  I want to conquer the world,
e|------------------------------------------------------------|
B|------------------------------------------------------------|
G|-6-4--------------------------------------------------------|
D|-6-4-------7-----------3------------------------------------|
A|-4-2-------7-----------3------------------------------------|
E|-----------5-----------1------------------------------------|
 
(1:57 - 2:00)
  I want to conquer the world.......
e|------------------------------------------------------------|
B|------------------------------------------------------------|
G|-6-4--------------------4-----------------------------------|
D|-6-4-------7------------4-----------------------------------|
A|-4-2-------7------------2-----------------------------------|
E|-----------5------------------------------------------------|

(2:00 - 2:03)
  I want to conquer the world...
e|------------------------------------------------------------|
B|------------------------------------------------------------|
G|-6-4--------------------------------------------------------|
D|-6-4-------7-----------3------------------------------------|
A|-4-2-------7-----------3------------------------------------|
E|-----------5-----------1------------------------------------|

(2:03 - 2:17)
  I want to conquer the world!!!!!!!!
e|------------------------------------------------------------|
B|------------------------------------------------------------|
G|-6-4--------------------4~~~--------------------------------|
D|-6-4-------7------------4~~~-----------------------------5--|
A|-4-2-------7------------2~~~-----------------------------5--|
E|-----------5---------------------------------------------7--|
(The 2nd last chord is left ringing at 2:12, then at 2:16 hit
last chord and stop it from sounding, if you have heard the song
you know what im talking about)


Wells thats it people, i hope you like it! Dusty CuPbOaRdS.
Comments