Bad Religion - Generator Chords & Tabs

 

Generator Chords & Tabs

Bad Religion Chords & Tabs

Version: 5 Type: Tab 0 ratings
1 star 2 stars 3 stars 4 stars 5 stars
comments

Generator Tab

------------------------------------------------------------------------------- 
                          GENERATOR – Bad Religion
------------------------------------------------------------------------------- 

By: Jim (jim@pleasantdelay.com) 

This is pretty much the whole song, all except the solo. 
If someone could send that to me, I would really appreciate it. 
I tabbed this for two guitars, but it can be played with one, and 
You’ll have to figure out the rhythm yourself.. 

Intro: guitar A 
e|---------------------------------------------------------------------------| 
B|------------------------------------------------------5-4------------------| 
G|------------------------------------------------------5-4------------------| 
D|---7--7-7-7-7---3--3-3-3-3---5--5-5-5-5---2—-2-2-2-2--3-2------------------| 
A|---7--7-7-7-7---3--3-3-3-3---5--5-5-5-5---2--2-2-2-2-----------------------| 
E|---5--5-5-5-5---1--1-1-1-1---3—-3-3-3-3—--2—-0-0-0-0-----------------------| 

Verse Pt.1 Guitars A and B 
e|---------------------------------------------------------------------------| 
B|---------------------------------------------------------------------------| 
G|---------------------------------------------------------------------------| 
D|--7-7-7-7-7---3-3-3-3-3---5-5-5-5-5---2-2-2-2-2----------------------------| 
A|--7-7-7-7-7---3-3-3-3-3---5-5-5-5-5---2-2-2-2-2----------------------------| 
E|--5-5-5-5-5---1-1-1-1-1---3-3-3-3-3---0-0-0-0-0----------------------------| 
[ Tab from: http://www.guitartabs.cc/tabs/b/bad_religion/generator_tab_ver_5.html ]
Verse Pt.2 Guitar A play x2 
e|---------------------------------------------------------------------------| 
B|---------------------------------------------------------------------------| 
G|--------------------------5-5-5-5-5----------------------------------------| 
D|--7-7-7-7-7---3-3-3-3-3---5-5-5-5-5---5-5-5-5-5----------------------------| 
A|--7-7-7-7-7---3-3-3-3-3---3-3-3-3-3---5-5-5-5-5----------------------------| 
E|--5-5-5-5-5---1—1-1-1-1---------------3-3-3-3-3----------------------------| 

Verse Pt.2 Guitar B playx2 
e|----0-0-0-0-----0-0-0-0-----0-0-0-0-----3-3-3-3----------------------------| 
B|----1-0-1-0-----1-0-1-0-----1-0-1-0-----3-3-3-3----------------------------| 
G|----2-2-2-2-----2-2-2-2-----0-0-0-0-----0-2-0-2----------------------------| 
D|----2-2-2-2-----3-3-3-3-----2-2-2-2-----0-0-0-0----------------------------| 
A|----0-0-0-0-----3-3-3-3-----3-3-3-3-----x-x-x-x----------------------------| 
E|----------------------------------------3-3-3-3----------------------------| 

Bridge: Guitar A play this 1st time. 2nd. 3rd. 
e|-----------------------------|---|-------|-----------------| 
B|-----------------------------|---|-------|-----------------| 
G|--2—2-2-2—-3/5—-3/5—-2-2-2-2-|-8-|--8----|--8--8--8--8—-8~-| 
D|--2-2-2-2—-3/5—-3/5—-2-2-2-2-|-8-|--8--4-|--6--6--6--6—-6~-| 
A|--0-0-0-0—-1/3—-1/3—-0-0-0-0-|-6-|--6--6-|--6--6--6--6—-6~-| 
E|-----------------------------|---|-----6-|-----------------| 

Bridge: Guitar B comes in after 3rd time 
e|---------------------------------------------------------------------------| 
B|---------------------------------------------------------------------------| 
G|---------------------------------------------------------------------------| 
D|--9-6----9-6—---9-6----9-6---9---------------------------------------------| 
A|------7------7------7------7-----------------------------------------------| 
E|---------------------------------------------------------------------------| 

Chorus: same as the verse parts. 
That’s about all I can figure out. Email with corrections, 
And the solo if you know it. 

-------------------------------------------------------------------------------
Comments