Bad Religion - Evangeline Chords & Tabs

 

Evangeline Chords & Tabs

Bad Religion Chords & Tabs

Version: 2 Type: Tab 0 ratings
1 star 2 stars 3 stars 4 stars 5 stars
comments

Evangeline Tab

------------------------------------------------------------------------------- 
                        EVANGELINE - Bad Religion
------------------------------------------------------------------------------- 

By: Terry (BadReligion_Believr5@hotmail.com) 

Intro 
e|-------------------------------------------| 
B|-------------------------------------------| 
G|-------------------------------------------| 
D|-------------9------------------7-------7--| 
A|--9-9-99-99--7--9\7--5-5-55-55--5--7-7--5--| 
E|--7-7-77-77-----7\5--3-3-33-33-----5-5-----| 

Verse 
e|-------------------------------------------| 
B|-------------------------------------------| 
G|-------------------------------------------| 
D|-------------9------------------7-------7--| 
A|--9-9-99-99--7--9\7--5-5-55-55--5--7-7--5--| 
E|--7-7-77-77-----7\5--3-3-33-33-----5-5-----| 

Pre-Chorus 
e|-------------------------------| 
B|-------------------------------| 
G|-------------------------------| 
D|---------7~~-------------------| 
A|--5~~~~--5~~--7~~--4~~--2-2-2--| 
E|--3~~~~-------5~~--2~~--0-0-0--| 
.p.m. 
[ Tab from: http://www.guitartabs.cc/tabs/b/bad_religion/evangeline_tab_ver_2.html ]
Chorus 
e|-------------------------------------| 
B|-------------------------------------| 
G|-------------------------------------| 
D|--7-7-7-7-7-7-7-7--------------------| 
A|--5-5-5-5-5-5-5-5--5-5-5-5--7-7-7-7--| 
E|-------------------3-3-3-3--5-5-5-5--| 

e|--------------------------------------------| 
B|--------------------------------------------| 
G|--------------------------------------------| 
D|--7-7-7-7-7-7-7-7---------------------------| 
A|--5-5-5-5-5-5-5-5--5-5-5-5--7-7-7-7--9~~~~--| 
E|-------------------3-3-3-3--5-5-5-5--7~~~~--| 

Bridge 
e|-------------------------------------------------------------| 
B|-8~~--------6~~--8~~--6~~--4~~--3~~--4-4-4-4-4-4--3-3-3-3-3--| 
G|-9~~---9~~--7~~--9~~--7~~--5~~--4~~--5-5-5-5-5-5--4-4-4-4-4--| 
D|-9~~--10~~--7~~--9~~--7~~--5~~--4~~--5-5-5-5-5-5--4-4-4-4-4--| 
A|-7~~--10~~--5~~--7~~--5~~--3~~--2~~--3-3-3-3-3-3--2-2-2-2-2--| 
E|-------8~~---------------------------------------------------| 

Solo 
e|----| 
B|----| 
G|----| 
D|----| 
A|----| 
E|----| 

Outro 
e|---------------------------------------------------| 
B|---------------------------------------------------| 
G|---------------------------------------------------| 
D|---------------11-----------------9-------9--------| 
A|--11-11-11-11---9--11\9--7-7-7-7--7--9-9--7--11\\--| 
E|---9--9--9--9-------9\7--5-5-5-5-----7-7------9\\--| 

-------------------------------------------------------------------------------
Comments