Bad Religion - Empire Strikes First Chords & Tabs

 

Empire Strikes First Chords & Tabs

Bad Religion Chords & Tabs

Version: 2 Type: Tab 0 ratings
1 star 2 stars 3 stars 4 stars 5 stars
comments

Empire Strikes First Tab

   
I saw another version of this that was a bit off so i'll do the whole song right,
still without the solo tho...THIS IS 100% CORRECT!




Ledgend:

* =Harmonic  (the '*' is UNDER the note)
~ =Let ring 1 note  ('~~' let ring 2 notes...etc.)
PM= Palm mute


intro part I       intro part II
 Guitar 1             Guitar 2
e|----------|        e|-----------------|
B|----------|        B|-----------------|
G|----------| x4     G|-----77--555--5--|
D|-77777777-|        D|-77--77--5555~55-|
A|-77777777-|        A|-77--55553335~35-|
E|-55555555-|        E|-5555--**---3~-3-|
                          **  
(play this ^ 4 times)... (then this ^ comes in but the first part keeps playing 8 times)

Verse:
Both guitars

e|-----------------|
B|-----------------|
G|-----77--555--5--| X4
D|-77--77--5555~55-|
A|-77--55553335~35-|
E|-5555--**---3~-3-|
     **                       

Chorus:

e|------------------------------|
B|------------------------------|
G|--------5-55555-------7-77999-| X2  (IM 100% RIGHT)
D|-77777775-555553-333337-77999-|
A|-77777773-333333-333335-55777-|
E|-5555555-------1-11111--------|

Post Chorus/Verse: 
Both Guitars

e|-----------------|
B|-----------------|
G|-----77--555--5--| X6  (2X for post chorus and then the 4X for the verse)
D|-77--77--5555~55-|
A|-77--55553335~35-|
E|-5555--**---3~-3-|
     **                     
Chorus:
[ Tab from: http://www.guitartabs.cc/tabs/b/bad_religion/empire_strikes_first_tab_ver_2.html ]
e|------------------------------|
B|------------------------------|
G|--------5-55555-------7-77999-| X2  
D|-77777775-555553-333337-77999-|
A|-77777773-333333-333335-55777-|
E|-5555555-------1-11111--------|

Bridge

e|-----------------------------|
B|-----------------------------|
G|-----------------------------| x2
D|-----------------------------|
A|-0-0-303---303---303---------|
E|--------3-3---2-2---1-113--3-|

Solo Riff: Same As Chorus:

e|------------------------------|
B|------------------------------|
G|--------5-55555-------7-77999-| X2  
D|-77777775-555553-333337-77999-|
A|-77777773-333333-333335-55777-|
E|-5555555-------1-11111--------|

Post Chorus:

e|----------|               e|------------------|
B|----------|               B|------------------|
G|----------| x4 ...BASS... G|------------------|
D|-77777777-|               D|-7777777777777777-|
A|-77777777-|               A|-7777777777777777-|
E|-55555555-|               E|-5555555555555555-|
   PMPMPMPM                    PMPMPMPMPMPM 

Chorus:

e|------------------------------|
B|------------------------------|
G|--------5-55555-------7-77999-| about 7 more times until it fades out  
D|-77777775-555553-333337-77999-|
A|-77777773-333333-333335-55777-|
E|-5555555-------1-11111--------|

i would include the lyrix but i dont have time... but your welcome for the perfect tab
Comments