Bad Religion - Empire Strikes First Chords & Tabs

 

Empire Strikes First Chords & Tabs

Bad Religion Chords & Tabs

Version: 1 Type: Tab 0 ratings
1 star 2 stars 3 stars 4 stars 5 stars
comments

Empire Strikes First Tab

-------------------------------------------------------------------------------
	               The Empire Strikes First - Bad Religion
-------------------------------------------------------------------------------
This is a great, but underrated song off their cd. 
i couldn't find the tab anywhere, so i figured i'd give it a try myself.
it's pretty straightforward. if you have any improvements or can figure 
out the solo, please update it...otherwise i'll try to update the solo eventually.

Tuning: Standard EADGBe

Order:
verse 8x
chorus 2x
verse 6x
chorus 2x
verse 2x
bridge 2x
solo
chorus 2x
another solo

*=pm
[ Tab from: http://www.guitartabs.cc/tabs/b/bad_religion/empire_strikes_first_tab.html ]
verse
e------------------------------------|
b------------------------------------|
g-----------7-7-7-7-5-5-5---5--------|
d--7-7-7-7--7-7-7-7-5-5-5-5-5-5------|
a--7-7-7-7--5-5-5-5-3-3-3-3-3-5------|
e--5-5-5-5----------------3---3------|
       * *      * *     

chorus
e-----------------------------------------------------------------------------|
b-----------------------------------------------------------------------------|
g-----------7-----------5------------------------5----------------------------|
d--7--------7-(8x)------5-(8x)------5------------5-(4x)-----------------------|
a--7-(8x)----5----------3-----------5-(4x)-------3----------------------------|
e--5--------------------------------3-----------------------------------------|


bridge " we just started out..."
e---------------------------------------------------|
b---------------------------------------------------|
g---------------------------------------------------|
d---------------------------------------------------|
a-0-0-3-0-3------3-0-3------3-0-3-------------------|
e------------3-3--------2-2-----------1------3------|
Comments