Bad Religion - Cant Stop It Chords & Tabs

 

Cant Stop It Chords & Tabs

Bad Religion Chords & Tabs

Version: 1 Type: Tab 0 ratings
1 star 2 stars 3 stars 4 stars 5 stars
comments

Cant Stop It Tab

-------------------------------------------------------------------------------
                            CAN'T STOP IT - Bad Religion
-------------------------------------------------------------------------------

By: Terry (BadReligion_Believer5@hotmail.com)

Intro
e|-----------------------|---------|------------|
B|-----------------------|---------|------------|
G|-----------------------|---------|------------|
D|--4-4-4--5-5-5---------|--8-8-8--|--10-10-10--|
A|--2-2-2--3-3-3--7-7-7--|--6-6-6--|---8--8--8--|
E|----------------5-5-5--|---------|------------|

Verse
e|----------------------------------------|
B|----------------------------------------|
G|----------------------------------------|
D|--4-4-4-4-4-4-4-4--5-5-5-5-5-5-5-5/7\5--|
A|--2-2-2-2-2-2-2-2--3-3-3-3-3-3-3-3/5\3--|
E|----------------------------------------|

e|--------------------------------------------|
B|--------------------------------------------|
G|--------------------------------------------|
D|--4-4-4-4-4-4-4-4-----------------------/7--|
A|--2-2-2-2-2-2-2-2--5-5-5-5-5-5-5-5/7\5/7/5--|
E|-------------------3-3-3-3-3-3-3-3/5\3/5----|
[ Tab from: http://www.guitartabs.cc/tabs/b/bad_religion/cant_stop_it_tab.html ]
e|----------------------------------------------------------------------|
B|----------------------------------------------------------------------|
G|----------------------------------------------------------------------|
D|--4-4-4-4-4-4-4-4-----------------------------------------------------|
A|--2-2-2-2-2-2-2-2--7-7-7-7-7-7-7-7--5-5-5-5-5-5-5-5--4-4-4-4-4-4-4-4--|
E|-------------------5-5-5-5-5-5-5-5--3-3-3-3-3-3-3-3--2-2-2-2-2-2-2-2--|

Chorus
e|----------------------------------------------------------------------|
B|----------------------------------------------------------------------|
G|----------------------------------------------------------------------|
D|--4-4-4-4-4-4-4-4-----------------------------------------------------|
A|--2-2-2-2-2-2-2-2--7-7-7-7-7-7-7-7--5-5-5-5-5-5-5-5--4-4-4-4-4-4-4-4--|
E|-------------------5-5-5-5-5-5-5-5--3-3-3-3-3-3-3-3--2-2-2-2-2-2-2-2--|

e|-----------------------------------------------------|
B|-----------------------------------------------------|
G|-----------------------------------------------------|
D|-----------------------------------------------------|
A|--5-5-5-5-5-5-5-5--7-7-7-7-7-7-7-7--9-9-9-9-9-9-9-9--|
E|--3-3-3-3-3-3-3-3--5-5-5-5-5-5-5-5--7-7-7-7-7-7-7-7--|

Outro
e|-----------------------|---------|------------|------|
B|-----------------------|---------|------------|------|
G|-----------------------|---------|------------|------|
D|--4-4-4--5-5-5---------|--8-8-8--|--10-10-10--|------|
A|--2-2-2--3-3-3--7-7-7--|--6-6-6--|---8--8--8--|--9\--|
E|----------------5-5-5--|---------|------------|--7\--|

===============================================================================
Comments