Bad Religion - Beyond Electric Dreams Chords & Tabs

 

Beyond Electric Dreams Chords & Tabs

Bad Religion Chords & Tabs

Version: 1 Type: Bass Tab 0 ratings
1 star 2 stars 3 stars 4 stars 5 stars
comments

Beyond Electric Dreams Bass Tab

Artist: Bad Religion
Song: Beyond Electric Dreams
Album: The Empire Strikes First

This song is easy and cool sounding. Regular tuning,
it's not the exact amount of each note, but I tried.

Intro:
G|---------------------------------------------------------|
D|---------------------------------------------------------|
A|-3-3-3-3-3-3-3-3---------5-5-5-5-------------------------|
E|-----------------1-1-1-1---------5-5-5-5-5-5-5-5-5-4-4-4-|

Verse:
G|---------------------------------------------------------|
D|---------------------------------------------------------|
A|-3-3-3-3-3-3-3-3---------5-5-5-5-------------------------|
E|-----------------1-1-1-1---------5-5-5-5-5-5-5-5-5-4-4-4-|
[ Tab from: http://www.guitartabs.cc/tabs/b/bad_religion/beyond_electric_dreams_btab.html ]
Chorus:
G|----------------------------------------------------------->
D|----------------------------------------------------------->
A|---------------------------------------------------0-0-2-2->
E|-5-5-5-5-5-5-about 14 times--1-1-1-1-1-1-1-1-1-1-1--------->

Chorus Continued:
G|----------------------------------------------------------|
D|--------------5--5----------------------------------------|
A|-3-3-3-3-3-3-3-33-3-3-3-----------------------------------|
E|------------------------3-3-3-3-3-3-3-3---3-3--4-4--------|

Bridge:
G|--------------->
D|--------------->
A|-3~-----3~-----> X2
E|--------------->

As The Bridge Builds Up:
G|-------------------|
D|-------------------|
A|--3-3--------------| X6
E|--------4-4--5-5---|

Then it goes right into the chorus while the guitar is doing a 
solo-type thing.

Song Structure:

Wait for guitar, then Intro X2
Verse X4
Chorus X2
Verse X4
Chorus X2
1st Bridge X2
As The Bridge Builds Up X6
Then Chorus to end of song

And that's it, enjoy.Please Rate

Questions or comments?
vanceaase67@hotmail.com
Comments