Bad Religion - Bad Religion Chords & Tabs

 

Bad Religion Chords & Tabs

Bad Religion Chords & Tabs

Version: 2 Type: Bass Tab 0 ratings
1 star 2 stars 3 stars 4 stars 5 stars
comments

Bad Religion Bass Tab

artist: bad religion
song: bad religion 
 G|--------------------| 
 D|--------------------| 
 A|-3------------------| 
 E|--------------------| 

First Verse- 
 G| ------------------------------| 
 D| ------------------------------| 
 A| -3-----------5----------------| 
 E| ----5--3--5-----5-5-5-3-3-5---| 
  

Pre-Chorus - 
G|------------------|------------------|------------------|------------------| 
D|------------------|------------------|------------------|------------------| 
A|-5-5-5-5-5-5-5-5--|-4-4-4-4-4-4-4-4--|-7-7-7-7-7-7-7-7--|-5-5-5-5-5-5-5-5--| 
E|------------------|------------------|------------------|------------------| 

G|------------------|------------------|------------------|------------------| 
D|------------------|------------------|------------------|------------------| 
A|-7-7-7-7-7-7-7-7--|-5-5-5-5-5-5-5-5--|-7-7-7-7-7-7-7-7--|-5----5-------6---| 
E|------------------|------------------|------------------|------------------| 

G|------------------|------------------|------------------|------------------| 
D|------------------|------------------|------------------|------------------| 
A|-7-7-7-7-7-7-7-7--|-5-5-5-5-5-5-5-5--|-6-6-6-6-6-6-6-6--|-6-6-6-6-6-6-6-6--| 
E|------------------|------------------|------------------|------------------| 

G| -------------------| 
D| -------------------| 
A| -6-----------------| 
E| -------------------| 

Chorus - 
G|------------------|------------------|------------------|------------------| 
D|------------------|------------------|------------------|------------------| 
A|------------------|------------------|------------------|-6-6-6-6----------| 
E|-6-6-6-6-6-6-6-6--|-4-4-4-4-6-6-6-6--|-6-6-6-6-6-6-6-6--|---------6-6-6-6--| 

G|------------------|------------------|------------------|------------------| 
D|------------------|------------------|------------------|------------------| 
A|------------------|------------------|------------------|-6-6-6-6----------| 
E|-6-6-6-6-6-6-6-6--|-4-4-4-4-6-6-6-6--|-6-6-6-6-6-6-6-6--|---------6-6-6-6--| 

G|------------------|------------------|------------------|------------------| 
D|------------------|------------------|------------------|------------------| 
A|------------------|-6-6-6-6----------|------------------|-6-6-6-6-7-7-7-7--| 
E|-6-6-6-6-6-6-6-6--|---------6-6-6-6--|-6-6-6-6-6-6-6-6--|------------------| 

G| -------------------|-------------------|-----------------------| 
D| -------------------|-------------------|-----------------------| 
A| -7-7-7-7-7-7-7-7---|-7-7-7-7-7-7-7-7---|------5------2---------| 
E| -------------------|-------------------|-----------------------| 
[ Tab from: http://www.guitartabs.cc/tabs/b/bad_religion/bad_religion_btab_ver_2.html ]
Second verse - 
  
 G| ------------------------------| 
 D| ------------------------------| 
 A| -5-----------7----------------| 
 E| ----7--5--7-----7-7-7-5-5-7---| 

Pre-Chorus - 
G| -------------------|-------------------| 
D| -------------------|-------------------| 
A| -7-7-7-7-7-7-7-7---|-6-6-6-6-6-6-6-6---| 
E| -------------------|-------------------| 

G| -------------------|-------------------| 
D| -------------------|-------------------| 
A| -9-9-9-9-9-9-9-9---|-7-7-7-7-7-7-7-7---| 
E| -------------------|-------------------| 
  

G| -------------------|-------------------| 
D| -------------------|-------------------| 
A| -9-9-9-9-9-9-9-9---|-7-7-7-7-7-7-7-7---| 
E| -------------------|-------------------| 

G| -------------------|------------------| 
D| -------------------|------------------| 
A| -9-9-9-9-9-9-9-9---|-7--7---------8---| 
E| -------------------|------------------| 

G| -------------------|-------------------| 
D| -------------------|-------------------| 
A| -9-9-9-9-9-9-9-9---|-7-7-7-7-7-7-7-7---| 
E| -------------------|-------------------| 
  

G| -------------------|-------------------|-----------------| 
D| -------------------|-------------------|-----------------| 
A| -8-8-8-8-8-8-8-8---|-8-8-8-8-8-8-8-8---|--8--------------| 
E| -------------------|-------------------|-----------------| 

Chorus - 
G|------------------|------------------|------------------|------------------| 
D|------------------|------------------|------------------|------------------| 
A|------------------|------------------|------------------|-6-6-6-6----------| 
E|-6-6-6-6-6-6-6-6--|-4-4-4-4-6-6-6-6--|-6-6-6-6-6-6-6-6--|---------6-6-6-6--| 

G|------------------|------------------|------------------|------------------| 
D|------------------|------------------|------------------|------------------| 
A|------------------|------------------|------------------|-6-6-6-6----------| 
E|-6-6-6-6-6-6-6-6--|-4-4-4-4-6-6-6-6--|-6-6-6-6-6-6-6-6--|---------6-6-6-6--| 

G|------------------|------------------|------------------|------------------| 
D|------------------|------------------|------------------|------------------| 
A|------------------|------------------|------------------|-6-6-6-6----------| 
E|-6-6-6-6-6-6-6-6--|-4-4-4-4-6-6-6-6--|-6-6-6-6-6-6-6-6--|---------6-6-6-6--| 

G|------------------|------------------|------------------|------------------| 
D|------------------|------------------|------------------|------------------| 
A|------------------|------------------|------------------|-6-6-6-6----------| 
E|-6-6-6-6-6-6-6-6--|-4-4-4-4-6-6-6-6--|-6-6-6-6-6-6-6-6--|---------6-6-6-6--| 

G|------------------|------------------|------------------|------------------| 
D|------------------|------------------|------------------|------------------| 
A|------------------|-6-6-6-6----------|------------------|-6-6-6-6----------| 
E|-6-6-6-6-6-6-6-6--|---------6-6-6-6--|-6-6-6-6-6-6-6-6--|---------6--------| 
Comments