Bad Religion - Anesthesia Chords & Tabs

 

Anesthesia Chords & Tabs

Bad Religion Chords & Tabs

Version: 1 Type: Tab 0 ratings
1 star 2 stars 3 stars 4 stars 5 stars
comments

Anesthesia Tab

-------------------------------------------------------------------------------
			     Anesthesia - Bad Religion
-------------------------------------------------------------------------------
Revised By: BaDReLiGiOn440
By:RAW email:RAWjackass@gateway.net

Intro:

e|--------------------------6-------------------------------------------------|
B|--------------------------6-------------------------------------------------|
G|--------------------------7--let it ring------------------------------------|
D|--8888-66-8888-66-8888-66-8-------------------------------------------------|
A|--8888-66-8888-66-8888-66-8-------------------------------------------------|
E|--6666-44-6666-44-6666-44-6-------------------------------------------------|

Guitar1 lead riff
e|--333-555-666-555-333-555--66-88-66----------------------------------------|
B|--333-333-333-444-333-333--33----------------------------------------------|
G|---------------------------------------------------------------------------|
D|---------------------------------------------------------------------------|
A|---------------------------------------------------------------------------|
E|---------------------------------------------------------------------------|

Guitar2
e|---------------------------------------------------------------------------|
B|---------------------------------------------------------------------------|
G|---------------------------------------------------------------------------|
D|--12121212121212--8877888--10101010101010--887788-10-----------------------|
A|--10101010101010--6666666---8-8-8-8-8-8-8--666666-8------------------------|
E|---------------------------------------------------------------------------|
[ Tab from: http://www.guitartabs.cc/tabs/b/bad_religion/anesthesia_tab.html ]
verse x3
e|-----------------------------------------------------|
B|-----------------------------------------------------|
G|----------------------------101010101010101010101010-|
D|--12121212121212--8877888---101010101010101010101010-|
A|--10101010101010--6666666----8-8-8-8-8-8-8-8-8-8-8-8-|
E|-----------------------------------------------------|

lead x3
e|--333-555-666-555------------------------------------|
B|--333-333-333-444------------------------------------|
G|--------------------101010101010101010101010---------|
D|--------------------101010101010101010101010---------|
A|---------------------8-8-8-8-8-8-8-8-8-8-8-8---------|
E|-----------------------------------------------------|

end verse# chorus x2
e|-------------------------------------------------------------------------|
B|-------------------------------------------------------------------------|
G|---------------------------------------------10101010101010--------------|
D|--8888-10101010#----12121212121212--8877888--10101010101010--8888-101010-|
A|--6666--8-8-8-8-----10101010101010--6666666---8-8-8-8-8-8-8--6666--8-8-8-|
E|-------------------------------------------------------------------------|

the anna....part..................the all good part............
e|------------------------------------------------------------------------------------------|
B|-----------------------7-7-7-7------------------------------------------------------------|
G|--77777777--666666666--7-7-7-7------------------------------------------------------------|
D|--88888888--777777777--7-7-7-7----88888888--10101010101010--12121212121212--101010101010--|
A|--88888888--777777777--5-5-5-5----88888888---8-8-8-8-8-8-8--10101010101010---8-8-8-8-8-8--|
E|--66666666--555555555-------------66666666------------------------------------------------|

Repeat

Outro with lead riff
e|-----------------------------------------------|
B|-----------------------------------------------|
G|-----------------------------------------------|
D|--1212121212--88-10-8--1010101010--88-12--10---|
A|--1010101010--66--8-6---8-8-8-8-8--66-10--10---|
E|--1010101010--66--8-6---8-8-8-8-8--66-10--8----|

===============================================================================
Comments