Bad Dogs - Mad Chords & Tabs

 

Mad Chords & Tabs

Bad Dogs Chords & Tabs

Version: 2 Type: Bass Tab 0 ratings
1 star 2 stars 3 stars 4 stars 5 stars
comments

Mad Bass Tab

Hi this is a song from a very famous punk band from Germany.
I tried to hear the tabs from CD. i hope you will enjoy it.


Intro: (repeat all the time)


g|---------------------------------------------|
d|---------------------------------------------|
a|---2---3---5---3-2---------------------------|
e|-0---0---0---0-----3-2-----------------------|


bridge
[ Tab from: http://www.guitartabs.cc/tabs/b/bad_dogs/mad_btab_ver_2.html ]
g|------------------------------|
d|------------------------------|
a|------------------------------|	(4 times)
e|---0--00---00----5-----3------|


(After singer scream)

chorus
g|-----------------------------------------------------|
d|-----------------------------------------------------|
a|-----2---3----5------3--2----------------------------|
e|--0----0---------0--------3--2-----------------------|


For more informations about baddog visit http://www.baddogs.de.vu
Comments