Bad Astronaut - Only Good For A Chords & Tabs

 

Only Good For A Chords & Tabs

Bad Astronaut Chords & Tabs

Version: 1 Type: Bass Tab 0 ratings
1 star 2 stars 3 stars 4 stars 5 stars
comments

Only Good For A Bass Tab

   
Song: Only Good For A ...
Artist: Bad Astronaut
Album: Acrophobe
Tabbed By: Adam Simmons (numbchuck01@hotmail.com)
http://www.basstabarchive.com/

Key:
* = Sustain (hold the note)
h = hammer-on
p = pull-off
/ = slide up
\ = slide down
> = play many times


Intro

G|--------0--------------0---------------------|
D|---------------------------------------------|
A|---2-3----3-2------2-3---3-2----2/9h10p9\5h7-|
E|-3------------3*-0-----------0*--------------|

G|------------------------------------|
D|-------0----------------------------|
A|-0-2-3---3-2-2*-3-0-3-5-7-5-3-5-10*-|
E|------------------------------------|


Verse 1 (#i know you'd really like to let them in...)

G|-----------------------------------------------|
D|-----------------------------------------------|
A|-5>----3-3---3---3-0---5-5*-7-7*-5-5*-3-3*---3-|
E|----0>-----3---3-----3---------------------3---|

G|-----------------------------|
D|-----------------------------|
A|----3>-5----5-5---5----3>-5*-|
E|-0>------3>-----5---0>-------|


Verse 2 (#someone tell me why i'm writing you...)
[ Tab from: http://www.guitartabs.cc/tabs/b/bad_astronaut/only_good_for_a_btab.html ]
G|----------------------------------------------------------|
D|----------------------------------------------------------|
A|------5>-7---7---7---5-3>-5-3-0---5-5*-7-7*-5-5*-3-3*---3-|
E|-2-3>------0---0---0------------3---------------------3---|

G|-----------------------------------|
D|-----------------------------------|
A|----3>-5----5-5---5----3>---3-3-5>-|
E|-0>------3>-----5---0>----3--------|


InterLude (just after #I know you hate it)

G|-----------------------------------|
D|-----------------------------------|
A|------3-2-3-5-3-2------5-3-2-0-2-3-|
E|-0>-3-------------0>-5-------------|

G|--------------------------|
D|--------------------------|
A|---2-3-0----2>-3>-5-5---5-|
E|-0-------3>-----------5---|


Chorus (#only good for a ...!)

G|-----------------------------------------|
D|-------2-4-5>-4-5>-4-5-4-2>-------4>-5-5-|
A|-3>-5>----------------------3>-5>--------|
E|-----------------------------------------|


Outro

G|-------0-------------0---------------0--------|
D|----------------------------------------------|
A|---2-3---3-2-----2-3---3-2---2---2-3---3-2----|
E|-3-----------3-3-----------3---3-----------3*-|
Comments