Bad Astronaut - Anecdote Chords & Tabs

 

Anecdote Chords & Tabs

Bad Astronaut Chords & Tabs

Version: 1 Type: Bass Tab 0 ratings
1 star 2 stars 3 stars 4 stars 5 stars
comments

Anecdote Bass Tab

Bad Astronaut - Anecdote
by: Jared Jaramillo (The Big Areolas)
midtown_rocker@hotmail.com

G---------------------------------------------------------------- X 3
D----------------------------------------------------------------
A----2-3----2-3-2----2-3---0-0--2-3-2----------------------------
E--1-------3---------0-------------------------------------------
[ Tab from: http://www.guitartabs.cc/tabs/b/bad_astronaut/anecdote_btab.html ]
G---------------------------------------------------------------- X 1
D----------------------------------------------------------------
A------3-3--------2-3-2-----2-3-------2-3-2-----------9/slide down
E-1-1--------3-3-----------1-------3-3---------------------------

G---------------------------------------------------------------- X 3
D----------------------------------------------------------------
A----2-3----2-3-2----2-3---0-0--2-3-2----------------------------
E--1-------3---------0-------------------------------------------

G---------------------------------------------------------------- X 3 
D----------------------------------------------------------------
A-----3-3-------2-2----0-0---2-2---3-3--0-0----------------------
E-1-1-------3-3---------------------------------------3~---------

 sounds best if you walk instead of picking.
Comments