Backyard Babies - Ex Files Chords & Tabs

 

Ex Files Chords & Tabs

Backyard Babies Chords & Tabs

Version: 2 Type: Tab 0 ratings
1 star 2 stars 3 stars 4 stars 5 stars
comments

Ex Files Tab

--------------------------------------------------------------------------------------------------------
((((((((((((((((((((((((((((((((((((((((Backyard Babies - Ex-Files))))))))))))))))))))))))))))))))))))))
--------------------------------------------------------------------------------------------------------


By:Anders
Mail:andersforslof@punkmail.com

[ Tab from: http://www.guitartabs.cc/tabs/b/backyard_babies/ex_files_tab_ver_2.html ]
--------------------------------------------------------------------------------|
--------------------------------------------------------------------------------|
--------------------------------------------------------------------------------|
--6--8--6---12-12-12-12-12-12-12-12-12-12---5--8--5---11-11-11-11-11(ring out)--|
--6--8--6---12-12-12-12-12-12-12-12-12-12---5--8--5---11-11-11-11-11------------|
--4--6--4---10-10-10-10-10-10-10-10-10-10---3--6--3---9--9--9--9--9-------------|


------------------|
--13-12-19--------|
------------12-10-|
------------------|
------------------|
------------------|
Comments