Backwards Alphabet - Pop Princess Chords & Tabs

 

Pop Princess Chords & Tabs

Backwards Alphabet Chords & Tabs

Version: 1 Type: Tab 0 ratings
1 star 2 stars 3 stars 4 stars 5 stars
comments

Pop Princess Tab

#--------------------------------PLEASE NOTE--------------------------------------#
# This file is the author's own work and represents their transcription of        #
# the song. You may only use this file for private study, scholarship, or         #
# research. Remember to view this file in Courier, or some other monospaced font. #
#---------------------------------------------------------------------------------#

Guide to TAB:
|-------------------------+------------------|
|  ~  = let ring/tremolo  |  s  = slide      |
|  ^  = trill             |  h  = hammer on  |
| b/r = bend and release  |  p  = pull off   |
|-------------------------+------------------|


Song: Pop Princess
Album: Better Off Live
Artist: Backwards Alphabet


Intro
e|----------------------------|----------------------------|----------------------------|-----------------------|
B|----------------------------|----------------------------|----------------------------|-----------------------|
G|----------------------------|----------------------------|----------------------------|-----------------------|
D|--55-44-55-44-55-4-5-4h5p4--|--55-44-55-44-55-4-5-4h5p4--|--55-44-55-44-55-4-5-4h5p4--|--55-44-55-44-5-7-5-4--|
A|----------------------------|----------------------------|----------------------------|-----------------------|
E|----------------------------|----------------------------|----------------------------|-----------------------|

e|--33-22-33-22-33-2-3-2h3p2--|--33-22-33-22-33-2-3-2h3p2--|--33-22-33-22-33-2-3-2h3p2--|--33-22-33-22-3-5-3-2--|
B|----------------------------|----------------------------|----------------------------|-----------------------|
G|----------------------------|----------------------------|----------------------------|-----------------------|
D|----------------------------|----------------------------|----------------------------|-----------------------|
A|----------------------------|----------------------------|----------------------------|-----------------------|
E|----------------------------|----------------------------|----------------------------|-----------------------|

[ Tab from: http://www.guitartabs.cc/tabs/b/backwards_alphabet/pop_princess_tab.html ]
Verse (2x)
e|--------------------|--------------------|--------------------|----------------3~--|
B|--------------------|--------------------|--------------------|--------------3-----|
G|------5-5-------5-5-|------5-5-------5-5-|------5-5-------5-5-|------------5-------|
D|-5-5--5-5--7-7--5-5-|-5-5--5-5--7-7--5-5-|-5-5--5-5--7-7--5-5-|------5---5---------|
A|-5-5--3-3--7-7--3-3-|-5-5--3-3--7-7--3-3-|-5-5--3-3--7-7--3-3-|----5---3-----------|
E|-3-3-------5-5------|-3-3-------5-5------|-3-3-------5-5------|--3-----------------|


Chorus
e|--------------------|--------------------|--------------------|--------------------|
B|--------------------|--------------------|--------------------|--------------------|
G|------555-------777-|------555-------777-|------555-------777-|------555-------777-|
D|-555--555--777--777-|-555--555--777--777-|-555--555--777--777-|-555--555--777--777-|
A|-555--333--777--555-|-555--333--777--555-|-555--333--777--555-|-555--333--777--555-|
E|-333-------555------|-333-------555------|-333-------555------|-333-------555------|


Post-Chorus
e|--------------------|--------------------|--------------------|--------------------|
B|--------------------|--------------------|--------------------|--------------------|
G|------5-5-------5-5-|------5-5-------5-5-|------5-5-------5-5-|------5-5-------5-5-|
D|-5-5--5-5--7-7--5-5-|-5-5--5-5--7-7--5-5-|-5-5--5-5--7-7--5-5-|-5-5--5-5--7-7--5-5-|
A|-5-5--3-3--7-7--3-3-|-5-5--3-3--7-7--3-3-|-5-5--3-3--7-7--3-3-|-5-5--3-3--7-7--3-3-|
E|-3-3-------5-5------|-3-3-------5-5------|-3-3-------5-5------|-3-3-------5-5------|


Verse (2x)
e|--------------------|--------------------|--------------------|----------------3~--|
B|--------------------|--------------------|--------------------|--------------3-----|
G|------5-5-------5-5-|------5-5-------5-5-|------5-5-------5-5-|------------5-------|
D|-5-5--5-5--7-7--5-5-|-5-5--5-5--7-7--5-5-|-5-5--5-5--7-7--5-5-|------5---5---------|
A|-5-5--3-3--7-7--3-3-|-5-5--3-3--7-7--3-3-|-5-5--3-3--7-7--3-3-|----5---3-----------|
E|-3-3-------5-5------|-3-3-------5-5------|-3-3-------5-5------|--3-----------------|


Chorus
e|--------------------|--------------------|--------------------|--------------------|
B|--------------------|--------------------|--------------------|--------------------|
G|------555-------777-|------555-------777-|------555-------777-|------555-------777-|
D|-555--555--777--777-|-555--555--777--777-|-555--555--777--777-|-555--555--777--777-|
A|-555--333--777--555-|-555--333--777--555-|-555--333--777--555-|-555--333--777--555-|
E|-333-------555------|-333-------555------|-333-------555------|-333-------555------|


e|-12 BARS---------|
B|-----------------|
G|--SOLO-----------|
D|----IT CHANGES---|
A|------EVERY------|
E|---------TIME----|
Comments