Backwards Alphabet - As Of Yet Untitled- Bass Chords & Tabs

 

As Of Yet Untitled- Bass Chords & Tabs

Backwards Alphabet Chords & Tabs

Version: 1 Type: Bass Tab 0 ratings
1 star 2 stars 3 stars 4 stars 5 stars
comments

As Of Yet Untitled- Bass Bass Tab

   
#--------------------------------PLEASE NOTE--------------------------------------#
# This file is the author's own work and represents their transcription of        #
# the song. You may only use this file for private study, scholarship, or         #
# research. Remember to view this file in Courier, or some other monospaced font. #
#---------------------------------------------------------------------------------#

Guide to BASS TAB:
-----------------------------
|                           |
|  Bassist don't need       |
|   frickin' guides!        |
|                           |
-----------------------------


Song: As Of Yet Untitled
Album: Unreleased
Artist: Backwards Alphabet


Layout of the song:
Intro x2
Verse x2
Chorusx2
P. C. x1
Intro x2
Verse x2
Chorusx2
P. C. x1
Intro x1 



Intro:
G|--------------------------------|--------------------------------|
D|--------------------------------|--------------------------------|
A|--5-5-5-5-5-5-5-5-5-5-5-5-5-5-5-|--------------------------------|
E|--------------------------------|--7-7-7-7-7-7-7-7-7-7-7-7-7-7-7-|
[ Tab from: http://www.guitartabs.cc/tabs/b/backwards_alphabet/as_of_yet_untitled_bass_btab.html ]
G|--------------------------------|--------------------------------|
D|--------------------------------|--------------------------------|
A|--------------------------------|--------------------------------|
E|--5-5-5-5-5-5-5-5-5-5-5-5-5-5-5-|--3-3-3-3-3-3-3-3--7--7--5--5---|


Verse:
G|--------------------------------|--------------------------------|
D|--------------------------------|--------------------------------|
A|--5-5-5-5-5-5-5-5-5-5-5-5-5-5-5-|--------------------------------|
E|--------------------------------|--7-7-7-7-7-7-7-7-7-7-7-7-7-7-7-|

G|--------------------------------|--------------------------------|
D|--------------------------------|--------------------------------|
A|--------------------------------|--------------------------------|
E|--5-5-5-5-5-5-5-5-5-5-5-5-5-5-5-|--3-3-3-3-3-3-3-3--7--7--5--5---|


Chorus:
G|------------------|------------------|
D|------------------|------------------|
A|------------------|------------------|
E|--2-2-2-2-2-2-2-2-|--3-3-3-3-3-3-3-3-|

G|-----------------|-------------------|
D|-----------------|-------------------|
A|-2-2-2-2-2-2-2-2-|--0-0-0-0-0-0-0-0--|
E|-----------------|-------------------|


Post Chorus:

G|-------------------|-------------------|
D|-------------------|-------------------|
A|--5-5-5-5-5-5-5-5--|--5-5-5-5-5-5-5-5--|
E|-------------------|-------------------|
Comments