Backstreet Boys - Show Me The Meaning Of Being Lonely Chords & Tabs

 

Show Me The Meaning Of Being Lonely Chords & Tabs

Backstreet Boys Chords & Tabs

Version: 5 Type: Tab 0 ratings
1 star 2 stars 3 stars 4 stars 5 stars
comments

Show Me The Meaning Of Being Lonely Tab

-------------------------------------------------------------------------------
	                SONG NAME -Show me the meaning(of being lonely) Band Name-Backstreet Boys
-------------------------------------------------------------------------------
Tabbed by:AnandPL
Email:thegreat_sephiroth@hotmail.com

Tuning:Standard

e|------------0---1-----------0---1------3/5----3----1---0------------------|
B|-------3--------------3--------------------------------------3------------|
G|--------------------------------------------------------------------------|
D|--------------------------------------------------------------------------|
A|--------------------------------------------------------------------------|
E|--------------------------------------------------------------------------|
[ Tab from: http://www.guitartabs.cc/tabs/b/backstreet_boys/show_me_the_meaning_of_being_lonely_tab_ver_5.html ]
e|--------0---1---------0---1-------3/5----3-----1----3/5---5---------------|
B|---3-------------3--------------------------------------------------------|
G|--------------------------------------------------------------------------|
D|--------------------------------------------------------------------------|
A|--------------------------------------------------------------------------|
E|--------------------------------------------------------------------------|

e|----5----3----1---0-------------------------------------------------------|
B|-----------------------3--2--0--------------------------------------------|
G|----------------------------------3---------------------------------------|
D|--------------------------------------------------------------------------|
A|--------------------------------------------------------------------------|
E|--------------------------------------------------------------------------|
Comments