Backstreet Boys - Show Me The Meaning Of Being A Lonly Chords & Tabs

 

Show Me The Meaning Of Being A Lonly Chords & Tabs

Backstreet Boys Chords & Tabs

Version: 1 Type: Tab 0 ratings
1 star 2 stars 3 stars 4 stars 5 stars
comments

Show Me The Meaning Of Being A Lonly Tab

============================================================================               
                             ********************  
(((((((((((((((((((((((((((((   SENDER BY MAFIA SO ))))))))))))))))))))))))))
                             *********************
=============================================================================
 
                    xxx_natural_born_killers_XXX@YAHOO.COM


                        ============================        
                        This Tab For Classis Guitar 
                        ============================ 


[ Tab from: http://www.guitartabs.cc/tabs/b/backstreet_boys/show_me_the_meaning_of_being_a_lonly_tab.html ]
----------------7-5-3-2-0|-3------------------------|--------------------------|
-5-7-8---5-7-8-----------|---5-7-8--5-7-8--7-10-----|-7-5-8--7-5-8-10-7-5-8-5--|
-------------------------|--------------------------|--------------------------|
-------------------------|--------------------------|--------------------------|
-------------------------|--------------------------|--------------------------|
-------------------------|--------------------------|--------------------------|
 1                        2                          3
-5-7---------------------|--------------------------|--------------------------|
-----8-5-7-4-------------|--------------------------|--------------------------|
-------------------------|--------------------------|--------------------------|
-------------------------|--------------------------|--------------------------|
-------------------------|--------------------------|--------------------------|
-------------------------|--------------------------|--------------------------|
 4                        5                          6
-------------------------|--------------------------|--------------------------|
-------------------------|--------------------------|--------------------------|
-------------------------|--------------------------|--------------------------|
-------------------------|--------------------------|--------------------------|
-------------------------|--------------------------|--------------------------|
-------------------------|--------------------------|--------------------------|
 7                        8                          9
-------------------------|--------------------------|--------------------------|
-------------------------|--------------------------|--------------------------|
-------------------------|--------------------------|--------------------------|
-------------------------|--------------------------|--------------------------|
-------------------------|--------------------------|--------------------------|
-------------------------|--------------------------|--------------------------|
 10                        11                         12
-------------------------|--------------------------|--------------------------|
-------------------------|--------------------------|--------------------------|
-------------------------|--------------------------|--------------------------|
-------------------------|--------------------------|--------------------------|
-------------------------|--------------------------|--------------------------|
-------------------------|--------------------------|--------------------------|
 13        
      .--------.
    /            \
   |    ======    |
   |              |
    \     __     /
     |   |  |   |
    .'   `--'   `.
    |    |--|    |
     \   |--|   /
      `--|--|--'
	 |--|
	 |--|
	 |--|
	 |--|
	 |--|
	 |--|
	 |__|
	/    \
       -|#  #|-
       -|#  #|-
       -|#  #|-
	`----'
Comments