Backstreet Boys - Larger Than Life Chords & Tabs

 

Larger Than Life Chords & Tabs

Backstreet Boys Chords & Tabs

Version: 2 Type: Tab 0 ratings
1 star 2 stars 3 stars 4 stars 5 stars
comments

Larger Than Life Tab

Backstreet boys-Larger than life
TabsMail-cifrastabs@zipmail.com.br
         Backstreet_boys-Larger than life                        



                                                                       
E||------------------|----------------------|-------------------------|
B||------------------|----------------------|-------------------1-----|
G||------------------|----------------------|-------------------------|
D||------------------|------------1---------|--------1----------------|
A||------------------|--3----3-------3------|--1--3-----3----3-----3--|
E||------------------|----------------------|-------------------------|

[ Tab from: http://www.guitartabs.cc/tabs/b/backstreet_boys/larger_than_life_tab_ver_2.html ]
                                                                      
----------------------|-------------------------|--------------------|
----------------------|-------------------1-----|--------------------|
----------------------|-------------------------|--------------------|
------------1---------|--------1----------------|--------------------|
--3----3-------3------|--1--3-----3----3-----3--|--3----3------------|
----------------------|-------------------------|--------------------|


------------------|--------------------------|------------------------|
------------------|--1--1-1-1--1--1----1--1--|------------------1--1--|
------------------|--------------------------|--3--3--3--2------------|
------------------|--------------------------|------------------------|
------------------|--------------------------|------------------------|
------------------|--------------------------|------------------------|

                                                               
--------------------|-------------------|---------------------|
--------------------|-------------------|--1--1--1------------|
---3-0--------------|----------------0--|---------------------|
--------------------|-------------------|---------------------|
--------------------|-------------------|---------------------|
--------------------|-------------------|---------------------|


TabsMail...
http://tabsmail.8m.com
!Exclusive-TabsMail!
                                                                            


Comments