Backstreet Boys - Incomplete Chords & Tabs

 

Incomplete Chords & Tabs

Backstreet Boys Chords & Tabs

Version: 4 Type: Tab 0 ratings
1 star 2 stars 3 stars 4 stars 5 stars
comments

Incomplete Tab

   
Artist: Backstreet Boys
Song: Incomplete
Tabbed by: unkn0wn6
Tuning: EADGBE (Standard)

nice song here that was originally ment for piano(duh). but it still sounds okay on guitar.

Intro:
||-----------------------------------------------------|
||-----------------------------------------------------|
||----------------2------------------------1-----------|
||------------4------4-----------------2-------2-------|
||--------4------------------------2-------------------|
||----2-----------------------0------------------------|

||-----------------------------------------------------|
||-----------------------------------------------------|
||----------------1------------------------------------|
||------------2------2--------2----1-----4~~-----------|
||--------2--------------------------------------------|
||----0------------------------------------------------|

||-----------------------------------------------------|
||-----------------------------------------------------|
||----------------2------------------------1-----------|
||------------4------4-----------------2-------2-------|
||--------4------------------------2-------------------|
||----2-----------------------0------------------------|

||-----------------------------------------------------|
||-----------------------------------------------------|
||----------------1------------------------------------|
||------------2------2--------4----2----1--------------|
||--------2-----------------------------------(4)------|
||----0------------------------------------------------|

Verse I: [come in for F#m together with the C# note(4)]
F#m      C#m
Empty spaces
E                 B
Fill me up with holes
F#m        C#m        E
Distant faces
         B
With no place left to go
F#m              C#m
Without you within me
E       B
I can't find no rest
F#m      C#m   E
Where I'm going

     B            A
Is anybody's guess

Chorus:
C#m       E
I've tried
  B
To go on like I never knew you
C#m      E
I'm awake
B
But my world is half asleep
C#m      E
I pray
          B
For this heart to be unbroken
     A                  C#m       B
But without you all I'm going to be is

Incomplete

(Repeat intro softly in background and violin(?) plays the tune. Maybe a guitar 2 can 
these notes also?)

||----5s2~~--------------------------------------------|
||-------------9s5~~----9s5----5----4----7~~-----------|
||-----------------------------------------------------|
||-----------------------------------------------------|
||-----------------------------------------------------|
||-----------------------------------------------------|

||----5s2~~--------------------------------------------|
||-------------9s5~~----9s5----7----(5)--(4)-----------|
||-----------------------------------------------------|
||-----------------------------------------------------|
||-----------------------------------------------------|
||-----------------------------------------------------|
[ Tab from: http://www.guitartabs.cc/tabs/b/backstreet_boys/incomplete_tab_ver_4.html ]
Verse II:
F#m    C#m
Voices tell me
E        B
I should carry on
F#m        C#m        E
But I am swimming
	B
In an ocean all alone
F#m      C#m
Baby, my baby
E     	     B
It's written on your face
F#m       C#m     E
You still wonder
B		     A
If we made a big mistake

Chorus:
C#m       E
I've tried
  B
To go on like I never knew you
C#m      E
I'm awake
B
But my world is half asleep
C#m      E
I pray
          B
For this heart to be unbroken
     A                  C#m       B
But without you all I'm going to be is
	A
Incomplete


Bridge:
C#m                      B
I don't mean to drag it on
B                           A
But I can't seem to let you go
C#m	             B	                 F#m
I don't wanna make you face this world alone~~~~~

		C#m	E	B
				     I wanna let you go
||----5s2~~--------------------------------------------|
||-------------9s5~~----9s5----------------------------|
||-----------------------------------------------------|
||-----------------------------------------------------|
||-----------------------------------------------------|
||-----------------------------------------------------|
      F#m      C#m	E       B
||----5s2~~--------------------------------12----------|
||-------------9s5~~----9s5-----------12---------------|
||------------------------------11---------------------|
||-----------------------------------------------------|
||-----------------------------------------------------|
||-----------------------------------------------------|

Chorus:
(no music) E
I've tried
  B
To go on like I never knew you
C#m      E
I'm awake
B
But my world is half asleep
C#m      E
I pray
          B
For this heart to be unbroken
     A                  C#m       B
But without you all I'm going to be is

Incomplete~~~

Outro:

||-----------------------------------------------------|
||-----------------------------------------------------|
||----------------2------------------------1-----------|
||------------4------4-----------------2-------2-------|
||--------4------------------------2-------------------|
||----2-----------------------0------------------------|
			              Incomplete~~
||-----------------------------------------------------|
||-----------------------------------------------------|
||----------------1------------------------------------|
||------------2------2--------2----1-----4~~-----------|
||--------2--------------------------------------------|
||----0------------------------------------------------|

||-----------------------------------------------------|
||-----------------------------------------------------|
||----------------2------------------------1-----------|
||------------4------4-----------------2-------2-------|
||--------4------------------------2-------------------|
||----2-----------------------0------------------------|

||-----------------------------------------------------|
||-----------------------------------------------------|
||----------------1------------------------------------|
||------------2------2--------4----(2)--(1)------------|
||--------2--------------------------------------------|
||----0------------------------------------------------|

Chords are taken from Mony from ultimate-guitar.com
Comments