Backstreet Boys - I Want It That Way Chords & Tabs

 

I Want It That Way Chords & Tabs

Backstreet Boys Chords & Tabs

Version: 1 Type: Tab 2 ratings
1 star 2 stars 3 stars 4 stars 5 stars
comments

I Want It That Way Tab

   
Backstreet Boys - I Want It That Way
Album: Millenium


using normal key

Intro:
[ Tab from: http://www.guitartabs.cc/tabs/b/backstreet_boys/i_want_it_that_way_tab.html ]
        F#m                 D            A
|-----------------------|---------|----------0----|
|-------2--------3/2----|-------3-|---------------|
|----------2----------2-|----2----|-------2-----2-| repeat 5
|----4--------4---------|-0-------|----2----------|
|-----------------------|---------|-0-------------|
|-2---------------------|---------|---------------|

        F#m             E      A
|--------------------|------|------|
|-------2--------3/2-|------|-2----|
|----------2---------|-3----|-2----|
|----4--------4------|-2----|-2----|
|--------------------|-2----|-0----|
|-2------------------|------|------|


After the intro, just continue again for the song.

Chorus:
D,E,A  X3 
Comments