Backstreet Boys - Crawling Back To You Chords & Tabs

 

Crawling Back To You Chords & Tabs

Backstreet Boys Chords & Tabs

Version: 1 Type: Tab 2 ratings
1 star 2 stars 3 stars 4 stars 5 stars
comments

Crawling Back To You Tab

Backstreet Boys
Crawling Back To You

alright this is my first tab but i know this is about 99% right
I'm a big Backsteet Boys fan at all but i got this cd for my g/f and actually
kinda liked this song so i figured i out and thought i'd post it. Please Rate!!!

Standard Tuning

Intro/Verse:
e-2h4-4-4-2h4-4-4p2--------------------------------------------0---0-----------------------------
b-5-5-5-5-5-5-5-5-5--4/5-5-5-4/5-5-5\4--0h2-2-2-0h2-2-2p0------0---0---------------0-------------
g-4-4-4-4-4-4-4-4-4--4-4-4-4-4-4-4-4-4--2-2-2-2-2-2-2-2-2------x---x---(last-time)-2-------------
d-2-2-2-2-2-2-2-2-2--2-2-2-2-2-2-2-2-2--2-2-2-2-2-2-2-2-2--4-4-4-4-4---------------2-------------
a--------------------4-4-4-4-4-4-4-4-4--0-0-0-0-0-0-0-0-0--4-4-4-4-4---------------0-------------
E----------------------------------------------------------2-2-2-2-2-----------------------------
[ Tab from: http://www.guitartabs.cc/tabs/b/backstreet_boys/crawling_back_to_you_tab.html ]
Chorus:
e-2-2-2-2-2-2-2-2-2----------------------------------------0-0-0-0-0-----------------------------
b-5-5-5-5-5-5-5-5-5--4-4-4-4-4-4-4/5-5--2-2-2-2-2-2-2-2-2--0-0-0-0-0-----------------------------
g-4-4-4-4-4-4-4-4-4--4-4-4-4-4-4-4-4-4--2-2-2-2-2-2-2-2-2--x-x-x-x-x-----------------------------
d-2-2-2-2-2-2-2-2-2--2-2-2-2-2-2-2-2-2--2-2-2-2-2-2-2-2-2--4-4-4-4-4-----------------------------
a--------------------4-4-4-4-4-4-4-4-4--0-0-0-0-0-0-0-0-0--4-4-4-4-4-----------------------------
E----------------------------------------------------------2-2-2-2-2-----------------------------

Verse

Chorus

Bridge: (listen for timing)
e-000--0-00--000--0-0--000--0-0--0-0-0-----------------------------------------------------------
b-000--0-00--000--0-0--000--0-0--2-2-2-----------------------------------------------------------
g-xxx--x-xx--666--6-6--444--4-4--2-2-2-----------------------------------------------------------
d-444--4-44--666--6-6--444--4-4--2-2-2-----------------------------------------------------------
a-444--4-44--444--4-4--222--2-2--0-0-0-----------------------------------------------------------
E-222--2-22--------------------------------------------------------------------------------------

Chorus

Well....... that's it, i'm know these are the right chords just listen to the song for the timing.

Comments