Backstreet Boys - As Long As You Love Me Chords & Tabs

 

As Long As You Love Me Chords & Tabs

Backstreet Boys Chords & Tabs

Version: 2 Type: Bass Tab 0 ratings
1 star 2 stars 3 stars 4 stars 5 stars
comments

As Long As You Love Me Bass Tab

BACKSTREET BOYS - "As Long AS You Love Me" - Bass Tab

Common Time(4/4)
Standard Tuning(EADG)

INTRO: rest(8 bars)

1ST VERSE:
|-----------------|-------------|---------------|-----------------|
|-----------------|-------------|---------------|-----------------|
|-----------------|-------------|---------------|-3-3-r-3-2-2-----|
|-5-5-r-5-5-5-r-5-|-1-r-1-1-1-r-|-3-3-r-3-3-3-r-|-------------5/3-|
  1 & 2 & 3 & 4 &   1 2 & 3 & 4   1 & 2 & 3 & 4   1 & 2 & 3 & 4 &

|-----------------|-----------------|-----------------|
|-----------------|-----------------|-----------------|
|-----------------|-----------------|-----------------|
|-5-5-r-5-5-5-r-5-|-1-1-r-1-1-1-r-1-|-3-3-r-3-3-3-r-3-|
  1 & 2 & 3 & 4 &   1 & 2 & 3 & 4 &   1 & 2 & 3 & 4 &

|---------------|---------------|-------------|---------------|
|-----2---------|---------------|---2---------|---------------|
|-3-3---5/3-----|---------------|-----5/3-----|---------------|
|-----------5/3-|-5-5-r-3/5-5-r-|-1-------5/3-|-3-3-3h5-3-r-3-|
  1 & 2 3 & 4 &   1 & 2 & 3 & 4   1 2 3 & 4 &   1 & 2 & 3 4 &

|---------------|---------------|-------------|---------------|
|-----2---------|---------------|---2---------|---------------|
|-3-3---5/3-----|---------------|-----5/3-----|---------------|
|-----------5/3-|-5-5-r-3/5-5-r-|-1-------5/3-|-3-3-3h5-3-r-3-|
  1 & 2 3 & 4 &   1 & 2 & 3 & 4   1 2 3 & 4 &   1 & 2 & 3 & 4

|---------------|
|---------------|
|-3-3-r-3-2-2---|
|-------------0-|
  1 & 2 & 3 & 4

1ST CHORUS:
|------------------|---------------|-----------------|
|*-----------------|-----2---------|-----------------|
|*-----------------|-3-3---5/3-----|-----------------|
|--1-1-1-1-1-1-1-1-|-----------5/3-|-5-5-5-5-5-5-5-5-|
   1 & 2 & 3 & 4 &   1 & 2 3 & 4 &   1 & 2 & 3 & 4 &

|--------------|
|---2---------*|
|-----5/3-----*| (x2)
|-3-------5/3--|
  1 2 3 & 4 &

2ND VERSE:
|---------------|-------------|---------------|---------------|
|---------------|---2---------|---------------|-----2---------|
|---------------|-----5/3-----|---------------|-3-3---5/3-----|
|-5-5-r-3/5-5-r-|-1-------5/3-|-3-3-3h5-3-r-3-|-----------5/3-|
  1 & 2 & 3 & 4   1 2 3 & 4 &   1 & 2 & 3 4 &   1 & 2 3 & 4 &

|---------------|-------------|---------------|---------------|
|---------------|---2---------|---------------|---------------|
|---------------|-----5/3-----|---------------|-3-3-r-3-2-2---|
|-5-5-r-3/5-5-r-|-1-------5/3-|-3-3-3h5-3-r-3-|-------------0-|
  1 & 2 & 3 & 4   1 2 3 & 4 &   1 & 2 & 3 & 4   1 & 2 & 3 & 4


2ND CHORUS:
|-----------------|---------------|-----------------|
|-----------------|-----2---------|-----------------|
|-----------------|-3-3---5/3-----|-----------------|
|-1-1-1-1-1-1-1-1-|-----------5/3-|-5-5-5-5-5-5-5-5-|
  1 & 2 & 3 & 4 &   1 & 2 3 & 4 &   1 & 2 & 3 & 4 &
[ Tab from: http://www.guitartabs.cc/tabs/b/backstreet_boys/as_long_as_you_love_me_btab_ver_2.html ]
|-------------|-----------------|---------------|-------------|
|---2---------|-----------------|-----2---------|-------------|
|-----5/3-----|-----------------|-3-3---5/3-----|---7-5-5-----|
|-3-------5/3-|-1-1-1-1-1-1-1-1-|-----------5/3-|-5-------7/5-|
  1 2 3 & 4 &   1 & 2 & 3 & 4 &   1 & 2 3 & 4 &   1 2 3 & 4 &

|---------------|-----------------|---------------|-----------------|
|---------------|-----------------|-----2---------|-----------------|
|---------------|-----------------|-3-3---5/3-----|-----------------|
|-r-3-3-5-3-0-0-|-1-1-r-1-1-1-r-1-|-----------5/3-|-5-5-r-5-5-5-r-5-|
  1 & 2 & 3 & 4   1 & 2 & 3 & 4 &   1 & 2 3 & 4 &   1 & 2 & 3 & 4 &

|-------------|---------------|---------------|-----------------|
|---2---------|---------------|-----2---------|-----------------|
|-----5/3-----|---------------|-3-3---5/3-----|-----------------|
|-3-------5/3-|-1-1-r-1-1-1-r-|-----------5/3-|-5-5-r-5-5-5-r-5-|
  1 2 3 & 4 &   1 & 2 & 3 & 4   1 & 2 3 & 4 &   1 & 2 & 3 & 4 &

|-----------|
|-----------|
|-----------|
|-3---3-3---|
  1 2 & 3 4

BRIDGE:
|---------------|-------------|-------------|-----------|
|---------------|-------------|-------------|-----------|
|---------------|-------------|-------------|-----------|
|-5-5-r-5-5-5-r-|-3---3-3-3-r-|-1---1-1-1-r-|-1---1-3-3-|
  1 & 2 & 3 & 4   1 2 & 3 & 4   1 2 & 3 & 4   1 2 & 3 4
                                                            (x4)
|-------------|-------------|-------------|---------|-----------|
|-------------|-------------|-------------|---------|*---------*|
|-------------|-------------|-------------|---------|*-r-e-s-t-*|
|-5-r-5-5-5---|-3---3-3-3-r-|-1---1-1-1-r-|-1---3---|-----------|
  1 2 & 3 & 4   1 2 & 3 & 4   1 2 & 3 & 4   1 2 3 4    1 2 3 4


END:
|------------------|---------------|---------------|-------------|
|*-----------------|-----2---------|---------------|---2---------|
|*-----------------|-3-3---5/3-----|---------------|-----5/3-----|
|--1-1-r-1-1-1-r-1-|-----------5/3-|-5-r-5-5-5-r-5-|-3-------5/3-|
   1 & 2 & 3 & 4 &   1 & 2 3 & 4 &   1 2 & 3 & 4 &   1 2 3 & 4 &

                                                             (x2)
|-----------------|---------------|-------------|----------------|
|-----------------|-----2---------|-------------|---------------*|
|-----------------|-3-3---5/3-----|---7-5-5-----|---------------*|
|-1-1-r-1-1-1-r-1-|-----------5/3-|-5-------7/5-|-r-3-3-5-3-0-0--|
  1 & 2 & 3 & 4 &   1 & 2 3 & 4 &   1 2 3 & 4 &   1 & 2 & 3 & 4

|-----------|-------------|-----------|-------------|---------|
|---3-2-2---|-.-.-.-------|---3-2-2---|-----------2-|---------|
|---------5-|-3-3-5-.-.-.-|---------5-|-3---3-5-5---|-3-------|
|-1---------|-------3-3-3-|-1---------|-------------|---------|
  1 2 3 & 4   1 & 2 3 & 4   1 2 3 & 4   1 2 & 3 & 4   1 2 3 4

By: Johari Taylor
E-mail: johari@goconnect.net or viking@powerup.com.au
More Bass Tabs: http://www.powerup.com.au/~viking/basstab.htm
Comments