Bach Johann Sebastian - Joy Of Mans Desiring Chords & Tabs

 

Joy Of Mans Desiring Chords & Tabs

Bach Johann Sebastian Chords & Tabs

Version: 1 Type: Tab 0 ratings
1 star 2 stars 3 stars 4 stars 5 stars
comments

Joy Of Mans Desiring Tab

     Jesu, Joy of Man's Desiring in Gmaj    by J.S.Bach
      tabbed by Sean Coleman

E||-----------------------0-----|-----3--2--3-----------------|
B||--0--------0--3--1--1-----3--|--3-----------3--0--------0--|
G||-----0--2--------------------|--------------------0--2-----|
D||-----------------------------|-----------------------------|
A||-----------------------------|-----------2-----------------|
D||--5--------4--------2--------|--5-----------------5--------|

E|--------0--------------------|-----------------------------|
B|--1--3-----3-----0-----0-----|--------------------1--0-----|
G|--------------5-----------0--|-----0--2--------2--------2--|
D|--2--------0--------7--------|--4--------0--4--------------|
A|-----------------------------|-----------------------------|
D|-----------5--------5--------|--0--------0--------0--------|

E|-----------------------0-----|-----3--2--3-----------------|
B|--0--------0--3--1--1-----3--|--3-----------3--0--------0--|
G|-----0--2--------------------|--------------------0--2-----|
D|-----------------------------|-----------------------------|
A|-----------------------------|-----------2-----------------|
D|--5--------4--------2--------|--5-----------------5--------|

                                 1+++++++++++++++++++++++++++\
E|-----------------------------|-----------3-----------------||
B|-----------0-----------------|-----0--3-----3--0-----0-----||
G|-----7--5-----2--0-----0-----|--0-----------------0-----2-:||
D|--------------------0-----4--|-----------------------------||
A|--7--------------------------|-----------------------------||
D|--5--------5--------0--------|--5-----------------5--------||

  2+++++++++++++++++++++++++++\
E|-----------3-----------------|
B|-----0--3-----3--0-----0--3--|
G|--0-----------------0--------|
D|-----------------------------|
A|-----------------------------|
D|--5--------------------------|

(refrain:)

E|--7-----------------8-------|-10----------------10--------|
B|--8----------------10-------|-12----------------12--------|
G|--0--0--------0-----0--0----|--0--0--------0-----0--0-----|
D|--------0--------0--------0-|--------0--------0--------0--|
A|----------------------------|-----------------------------|
D|-----------5----------------|-----------5-----------------|

E|--8-----------------7-------|--5--------------5---8--7--5--|
B|-10-----------------8-------|-----7--------7---------------|
G|--0--0--------0-----0--0----|--------7--7------------------|
D|--------0--------0--------0-|------------------------------|
A|----------------------------|------------------------------|
D|-----------5----------------|--0--------0---------0--------|

E|--7-----------------8-------|-10-----------------7--------|
B|--8----------------10-------|-12-----------------8--------|
G|--0--0--------0-----0--0----|--0--0--------0-----0--0-----|
D|--------0--------0--------0-|--------0--------0--------0--|
A|----------------------------|-----------------------------|
D|-----------5----------------|-----------5-----------------|
[ Tab from: http://www.guitartabs.cc/tabs/b/bach_johann_sebastian/joy_of_mans_desiring_tab.html ]
E|--5-----7/8---7--------5--------|--3--------------------------||
B|--7-----------------------------|-----------------------0-----||
G|-----7-----------7--------7-----|-----0--------0-----------2--||
D|--------------------7--------7--|--------0--------0----------:||
A|--------------------------------|-----------------------------||
D|--0-----------0--------0--------|--5--------5--------5--------||

(repeat ALL the way back to the beginning, then:)

E||-----------------------0-----|-----3--2--3-----------------|
B||--0--------0--3--1--1-----3--|--3-----------3--0--------0--|
G||-----0--2--------------------|--------------------0--2-----|
D||-----------------------------|-----------------------------|
A||-----------------------------|-----------2-----------------|
D||--5--------4--------2--------|--5-----------------5--------|

E|--------0--------------------|-----------------------------|
B|--1--3-----3-----0-----0-----|--------------------1--0-----|
G|--------------5-----------0--|-----0--2--------2--------2--|
D|--2--------0--------7--------|--4--------0--4--------------|
A|-----------------------------|-----------------------------|
D|-----------5--------5--------|--0--------0--------0--------|

E|-----------------------0-----|-----3--2--3-----------------|
B|--0--------0--3--1--1-----3--|--3-----------3--0--------0--|
G|-----0--2--------------------|--------------------0--2-----|
D|-----------------------------|-----------------------------|
A|-----------------------------|-----------2-----------------|
D|--5--------4--------2--------|--5-----------------5--------|

                                 1+++++++++++++++++++++++++++\
E|-----------------------------|-----------3-----------------||
B|-----------0-----------------|-----0--3-----3--0-----0-----||
G|-----7--5-----2--0-----0-----|--0-----------------0-----2-:||
D|--------------------0-----4--|-----------------------------||
A|--7--------------------------|-----------------------------||
D|--5--------5--------0--------|--5-----------------5--------||



  2+++++++++++++++++++++++++++\
E|-----------3-----------------|
B|-----0--3-----3--0-----0--3--|
G|--0-----------------0--------|
D|-----------------------------|
A|-----------------------------|
D|--5-----------------5--------|

E|--1-----------------0--------|-----------------------------|
B|-----3--0--------1-----1-----|--------------------1--0-----|
G|-----------0--2-----------2--|-----0--2--------2--------2--|
D|-----------------------------|--4--------0--4--------------|
A|-----------------------------|-----------------------------|
D|-----------5-----------------|--0--------0--------0--------|
    ^
    this measure sounds odd to me, but I left it as original (tjl)

E|-----------------------0-----|-----3--2--3-----------------|
B|--0--------0--3--1--1-----3--|--3-----------3--0--------0--|
G|-----0--2--------------------|--------------------0--2-----|
D|-----------------------------|-----------------------------|
A|-----------------------------|-----------2-----------------|
D|--5--------4--------2--------|--5-----------------5--------|
                                  _
                                          /.\
E|-----------------------------|-----------3----------------||
B|-----------0-----------------|-----0--3--0----------------||
G|-----7--5-----2--0-----0-----|--0--------0----------------||
D|--------------------0-----4--|-----------0----------------||
A|--7--------------------------|----------------------------||
D|--5--------5--------0--------|--5--------5----------------||
          ^
          this a C# in original, I think C sounds better. (tjl)
Comments