Bach Johann Sebastian - Air On The G String Chords & Tabs

 

Air On The G String Chords & Tabs

Bach Johann Sebastian Chords & Tabs

Version: 1 Type: Tab 0 ratings
1 star 2 stars 3 stars 4 stars 5 stars
comments

Air On The G String Tab

   
Air on the G-string (from orchestral suite no.3)
By: Johann Sebastian Bach
Arranged by beginnerguitaristnathan

Adagio

  1 e & a 2 e & a 3 e & a 4 e & a (etc..)
  |       |       |       |       | |       |       |       |       |
  | | | | | | | | | | | | | | | | | | | | | | | | | | | | | | | | | |
E-2-------------------------------|-2-------------------------------|
B-3-------------------------------|-3-------------------------------|
G-2-------------------------------|-4-------------------------------|
D-0-------0-----------------------|---------------------------------|
A-----------------4-------4-------|-2-------2-------0-------0-------|
E---------------------------------|---------------------------------|


  |       |       |       |       | |       |       |       |       |
  | | | | | | | | | | | | | | | | | | | | | | | | | | | | | | | | | |
E---------7---3---2-0-------------|---------------------------------|
B-0-------------------3---2---3---|-2---------------0---------------|
G---------0-------4---------------|-2-------------------2-----------|
D---------------------------------|-2-------------------------------|
A---------------------------------|-0-------0-----------------------|
E-3---------------4-------4-------|-----------------3-------3-------|


  |       |       |       |       | |       |       |       |       |
  | | | | | | | | | | | | | | | | | | | | | | | | | | | | | | | | | |
E-5-----------------------5-------|-----------------0-------5---3---|
B---------4-------4-------5-------|-----7---------------4-----------|
G---------5---4---5-----------5---|-4-------5---4-------------------|
D---------4-----------------------|-4-------------------------------|
A---------------------------------|-6-------6-------2-------2-------|
E-2---------------0-------0-------|---------------------------------|


  |       |       |       |       | |       |       |       |       |
  | | | | | | | | | | | | | | | | | | | | | | | | | | | | | | | | | |
E-3-------------------2---3---0---|-------------------------3---2---|
B-5-------5---3---5---------------|-----5-----------3---2-----------|
G-4-------4-----------------------|-2-------4---2-------------------|
D-----------------0-------0-------|-2-------------------------------|
A---------------------------------|-4-------4-------0-------0-------|
E-0-------0-----------------------|---------------------------------|


  |       |       |       |       | |       |       |       |       |
  | | | | | | | | | | | | | | | | | | | | | | | | | | | | | | | | | |
E-2-----------------------4---5---|-----------0-2-------0---0-------|
B-3-----------------------5-------|-3-------3-------0-----------3---|
G-2-------------------------------|-2-------1---------------1-------|
D-0-------0-----------------------|---------------------------------|
A-----------------4-------4-------|-2-------2-----------------------|
E---------------------------------|-----------------4-------0-------|

                                  __________________________________
                                  |1.                              |
  |       |       |       |       | |       |       |       |       ||
  | | | | | | | | | | | | | | | | | | | | | | | | | | | | | | | | | ||
E---------------------------------|---------------------------------||
B-2---0---0-2-3-----------2---0---|---------------------------------*|
G-2-------2---------------1-------|-2-------------------0-----------*|
D-2-------4-----------------------|-2-----------0---2-------4---2---||
A-0-------5-----------------------|-0---2---4-----------------------||
E-----------------0-------0-------|---------------------------------||


__________________________________
|2.                               |
  |       |       |       |       | |       |       |       |       |
  | | | | | | | | | | | | | | | | | | | | | | | | | | | | | | | | | |
E---------------------------------|---------------------------------|
B---------------------------------|-2-------------------3-2-0-2-----|
G-2-------------------------------|-2---------------------------2---|
D-2-------------------------------|-2-------------------------------|
A-4-------------------------------|-0-------0-----------------------|
E-5-------------------------------|-----------------3-------3-------|


  |       |       |       |       | |       |       |       |       |
  | | | | | | | | | | | | | | | | | | | | | | | | | | | | | | | | | |
E-5---------------2---------------|---------7-----------5---3---2---|
B---------4---5-------0---1-------|-----------------4-------4-------|
G-----4---5---------------2---0---|-4-----------0-------------------|
D---------4-----------------------|-4---5---7-------4---------------|
A---------------------------------|-6-------6---------------2-------|
E-2---------------0-------0-------|---------------------------------|

[ Tab from: http://www.guitartabs.cc/tabs/b/bach_johann_sebastian/air_on_the_g_string_tab.html ]
  |       |       |       |       | |       |       |       |       |
  | | | | | | | | | | | | | | | | | | | | | | | | | | | | | | | | | |
E-3-----------------2-0-----------|-------------------------0-------|
B-5---------------------3-2---0---|-----0---2-------2---3-----------|
G-4-------------------------------|-3---------------0-------0-------|
D-----------------0-------0-------|-----0---2---4-------4-------2---|
A---------------------------------|-4-------4-------2-------2-------|
E-0-------0-----------------------|---------------------------------|


  |       |       |       |       | |       |       |       |       |
  | | | | | | | | | | | | | | | | | | | | | | | | | | | | | | | | | |
E-----2---3---------------2-------|-0---------------------0---------|
B-----3---2---0-------0---2-------|-0---3---2---0---2---3---3-------|
G-----------------3---------------|-----------------0-------3-------|
D---------------------------------|-4-------2---0-----------2---0---|
A-1-------2-------4-------1-------|-2-------------------------------|
E---------------------------------|---------3-------0-------2-------|


  |       |       |       |       | |       |       |       |       |
  | | | | | | | | | | | | | | | | | | | | | | | | | | | | | | | | | |
E---------------------------------|---------------------2---0-------|
B-0-------------------------------|-3---------------------------3---|
G---------------------------------|-4-------4-------2---1---2-------|
D-4-------------------------------|---------------------------------|
A-5-------------------------------|---------------------------------|
E-7-------7-------5-------5-------|-4-------4-------2-------2-------|


  |       |       |       |       | |       |       |       |       |
  | | | | | | | | | | | | | | | | | | | | | | | | | | | | | | | | | |
E-7-----------------------5---4---|-2-0-5---------------------------|
B-------------------------0-------|-0---------------0-----------2-3-|
G-----------------1---2-----------|---------2-------1---------------|
D-6-------2---4---0-------0-------|---------2-------0---------------|
A---------------------------------|-4-------4-----------------------|
E-0-------0-----------------------|-------------------------0-------|


  |       |       |       |       | |       |       |       |       |
  | | | | | | | | | | | | | | | | | | | | | | | | | | | | | | | | | |
E---------------------------------|-------------------------2---0---|
B-2-----------0-------------------|-3-----------------------3-------|
G-----------------2---------------|-2-------4---5---4---6-----------|
D-2-----------0-------0---2-------|---------------------------------|
A-0-------0-------4-----------4---|---------------------------------|
E-----------------3-------3-------|-2-------2-------3-------3-------|


  |       |       |       |       | |       |       |       |       |
  | | | | | | | | | | | | | | | | | | | | | | | | | | | | | | | | | |
E-0-------------------------------|-------------------------5-------|
B---------2---0---2---4---8---7---|-7-----------------------7---8---|
G-------------------------9-------|-6-------8---6---8---9-----------|
D-2-------------------------------|---------------------------------|
A-----------------0-------0-------|---------------------------------|
E-4-------4-----------------------|-6-------6-------7-------7-------|


  |       |       |       |       | |       |       |       |       |
  | | | | | | | | | | | | | | | | | | | | | | | | | | | | | | | | | |
E---------0-----------------------|-------------------------0---3---|
B-8-----------0-------0-----------|-----------------2---2-----------|
G-9---8-------------------0-------|-2-----------2-----------2-------|
D-------------------------0---2---|-2-------2-----------------------|
A-----------------0---------------|-4---4---4-------0-------4-------|
E-0-------0-----------------------|---------------------------------|


  |       |       |       |       | |       |       |       |       |
  | | | | | | | | | | | | | | | | | | | | | | | | | | | | | | | | | |
E-3---0---2-------------------3-5-|---------------------2---5---8---|
B---------2---3-------------------|-3---------------3---------------|
G-2---------------2---------------|-2-------0-------2---------------|
D-0-------0-----------------------|---------------------------------|
A-----------------3-------3-------|-2-------2-------0-------0-------|
E---------------------------------|---------------------------------|


  |       |       |       |       | |       |       |       |       |
  | | | | | | | | | | | | | | | | | | | | | | | | | | | | | | | | | |
E-7-------------------------------|-----0---3-----------------------|
B-0-----------------------3-------|-2-------0-------0-------0-------|
G-7-------------------------------|-0-----------0-------2---0-------|
D---------------------------------|---------2-------0-------0---4---|
A---------------------------------|-----0---------------------------|
E-3-------3-------2-------2-------|-0-------0-----------------------|


  |       |       |       |       | |       |       |       |       |
  | | | | | | | | | | | | | | | | | | | | | | | | | | | | | | | | | |
E---------0---2-3-3---2-------0---|---------------------------------|
B-----3---2---0-----------0-------|-3-2-0-------2---3-2-3-2-----3---|
G-2---------------2---------------|-2---------------2-------0-------|
D-2---------------0---------------|-----------------2---------------|
A-4-------0-----------------------|-0---------------0-------0-------|
E-------------------------3-------|---------3-----------------------|


E--------------------||
B--3-----------------||
G--2-----------------||
D--4-----------------||
A--5-----------------||
E--------------------||
Comments