Bach - La Bouree De Bach Chords & Tabs

 

La Bouree De Bach Chords & Tabs

Bach Chords & Tabs

Version: 1 Type: Tab 0 ratings
1 star 2 stars 3 stars 4 stars 5 stars
comments

La Bouree De Bach Tab

#----------------------------------PLEASE NOTE---------------------------------#
#This file is the author's own work and represents their interpretation of the #
#song. You may only use this file for private study, scholarship, or research. #
#------------------------------------------------------------------------------#
LA BOURÉE DE BACH




Transcribed by geneticfreak
  M.M. = 120
|---------2-|-3--2----------|---------------|----------------|
|-------5---|------5-4--5-7-|----2-4-5--3-1-|----------------|
|-----------|---------------|-4-------------|-4--2-0----0-2--|
|-----------|---------------|---------------|--------4-------|
|-----------|---------------|---------------|--------2--0----|
|-------3-2-|-0--5---7--5---|-3--2---0--2---|-3--5-----------|


|---------------2-|-3--2----------|---------------|----------------|
|-------------5---|------5-4--5-7-|----2-4-5--3-1-|----------------|
|-4-2-------------|---------------|-4-------------|-4--------------|
|-----5-4-2-------|---------------|---------------|----7-5-4----5--|
|-----2-----------|---------------|---------------|----3---5--5----|
|-3-------0-2-3-2-|-0--5---7--5---|-3--2---0--2---|-3--------------|


|----------2-|-3--2----------|---------------|----------------|
|--------5---|------5-4--5-7-|----2-4-5--3-1-|----------------|
|-0----------|---------------|-4-------------|-4--2-0----0-2--|
|-0----------|---------------|---------------|--------4-------|
|-2----------|---------------|---------------|--------2--0----|
|-3------3-2-|-0--5---7--5---|-3--2---0--2---|-3--5-----------|


|---------------2-|-3--2----------|---------------|----------------|
|-------------5---|------5-4--5-7-|----2-4-5--3-1-|----------------|
|-4-2-------------|---------------|-4-------------|-4--------------|
|-----5-4-2-------|---------------|---------------|----7-5-4----5--|
|-----2-----------|---------------|---------------|----3---5--5----|
|-3-------0-2-3-2-|-0--5---7--5---|-3--2---0--2---|-3--------------|


|------------|---------------|---------------|----------------|
|------------|-3----1----8---|------3--------|-----------0----|
|-0------4---|----2---4----7-|-9--4---5--4-2-|-1--2-4-5----2--|
|-0--------5-|---------------|-----------0---|-2------2-------|
|-2----------|---------------|---------------|----------------|
|-3------3---|-2--5---3--7---|-8--4---5------|----5------0----|


|----------------|---------------|-----------------|--------------------|
|------------3---|----8--------3-|----10---------5-|--------------------|
|-2------------2-|-4----7-9--4---|-5-----9-11--6---|-7---------------4--|
|------------0---|---------------|-----------------|----11-9-8-9-8------|
|---2-0----------|---------------|-----------------|-----7---9----------|
|-5-----3-2------|-3--7---8--4---|-5---9---10--6---|-7-------------2----|

[ Tab from: http://www.guitartabs.cc/tabs/b/bach/la_bouree_de_bach_tab.html ]
|-------------7---|----------------3-|--------------1-|----5-----------|
|---------------7-|--9-------10--5---|--7------8--3---|-5----5-7--2-5--|
|-4---------------|-----11-9---------|-----9-7--------|----------------|
|-----------------|------------------|----------------|----------------|
|-----------------|------------------|----------------|----------------|
|-7-6-7-9-11--7---|-12--10----9--5---|-10--8---7--3---|-8--7---5--2----|


|----------------|-----------------|----------------|----------------|
|-4----------5---|-------------1---|----------------|----------------|
|----4---------4-|-5---7---4-----0-|-2---4----------|----------------|
|----------------|-------7---1-2---|-------4-5--4-2-|-1--2-4-5--4-2--|
|------3-2-0-----|---7-9-----------|---4-6------0---|-2--0-----------|
|-7----------4---|-5-------3-------|-2-------0------|--------7-------|


|------------|---------------|---------------|----------------|
|------------|-3----1----8---|------3--------|-----------0----|
|--------4---|----2---4----7-|-9--4---5--4-2-|-1--2-4-5----2--|
|-2--------5-|---------------|-----------0---|-2------2-------|
|------------|---------------|---------------|----------------|
|-0------3---|-2--5---3--7---|-8--4---5------|----5------0----|


|----------------|---------------|-----------------|--------------------|
|------------3---|----8--------3-|----10---------5-|--------------------|
|-2------------2-|-4----7-9--4---|-5-----9-11--6---|-7---------------4--|
|------------0---|---------------|-----------------|----11-9-8-9-8------|
|---2-0----------|---------------|-----------------|-----7---9----------|
|-5-----3-2------|-3--7---8--4---|-5---9---10--6---|-7-------------2----|


|-------------7---|----------------3-|--------------1-|----5-----------|
|---------------7-|--9-------10--5---|--7------8--3---|-5----5-7--2-5--|
|-4---------------|-----11-9---------|-----9-7--------|----------------|
|-----------------|------------------|----------------|----------------|
|-----------------|------------------|----------------|----------------|
|-7-6-7-9-11--7---|-12--10----9--5---|-10--8---7--3---|-8--7---5--2----|


|----------------|-----------------|----------------|----------------|
|-4----------5---|-------------1---|----------------|----------------|
|----4---------4-|-5---7---4-----0-|-2---4----------|----------------|
|----------------|-------7---1-2---|-------4-5--4-2-|-1--2-4-5--4-2--|
|------3-2-0-----|---7-9-----------|---4-6------0---|-2--0-----------|
|-7----------4---|-5-------3-------|-2-------0------|--------7-------|


|--------*|
|--------*|
|--------*|
|-2------*|
|--------*|
|-0------*|



--------------------------------------------------------------------------------
Legend
------
h = hammer-on; p = pull-off; b = bend; r = bend release; / = slide up/down; [5] = nat. harmonic;  = art. harmonic; ~ = vibrato; tr = trill; T = tap; TP = trem. picking; PM = palm muting; | = bar; || = double bar; ||o = repeat start; *|| = repeat end; *|  = double bar (end); : = bar (freetime); d = tremolo bar dive; u = tremolo bar up; = = hold (bend or tremolo bar)
--------------------------------------------------------------------------------
** Generated using Power Tab Editor by Brad Larsen:   The Official Power Tab Web Site


Comments